  0
SECTION
  2
HEADER
  9
$ACADVER
  1
AC1018
  9
$ACADMAINTVER
 70
    39
  9
$DWGCODEPAGE
  3
DOS932
  9
$LASTSAVEDBY
  1
fottrem
  9
$INSBASE
 10
0.0
 20
0.0
 30
0.0
  9
$EXTMIN
 10
22.67191985125303
 20
61.50943527869787
 30
0.0
  9
$EXTMAX
 10
34.00317958997735
 20
71.50777487536591
 30
0.0
  9
$LIMMIN
 10
0.0
 20
0.0
  9
$LIMMAX
 10
90.0
 20
90.0
  9
$ORTHOMODE
 70
     0
  9
$REGENMODE
 70
     1
  9
$FILLMODE
 70
     1
  9
$QTEXTMODE
 70
     0
  9
$MIRRTEXT
 70
     1
  9
$LTSCALE
 40
1.0
  9
$ATTMODE
 70
     1
  9
$TEXTSIZE
 40
5.0
  9
$TRACEWID
 40
1.0
  9
$TEXTSTYLE
  7
Standard
  9
$CLAYER
  8
0
  9
$CELTYPE
  6
ByLayer
  9
$CECOLOR
 62
   256
  9
$CELTSCALE
 40
1.0
  9
$DISPSILH
 70
     0
  9
$DIMSCALE
 40
1.0
  9
$DIMASZ
 40
6.0
  9
$DIMEXO
 40
1.0
  9
$DIMDLI
 40
3.75
  9
$DIMRND
 40
0.0
  9
$DIMDLE
 40
0.0
  9
$DIMEXE
 40
1.0
  9
$DIMTP
 40
0.0
  9
$DIMTM
 40
0.0
  9
$DIMTXT
 40
3.5
  9
$DIMCEN
 40
2.5
  9
$DIMTSZ
 40
0.0
  9
$DIMTOL
 70
     0
  9
$DIMLIM
 70
     0
  9
$DIMTIH
 70
     1
  9
$DIMTOH
 70
     1
  9
$DIMSE1
 70
     0
  9
$DIMSE2
 70
     0
  9
$DIMTAD
 70
     1
  9
$DIMZIN
 70
     0
  9
$DIMBLK
  1

  9
$DIMASO
 70
     1
  9
$DIMSHO
 70
     1
  9
$DIMPOST
  1

  9
$DIMAPOST
  1

  9
$DIMALT
 70
     0
  9
$DIMALTD
 70
     3
  9
$DIMALTF
 40
0.0393700787401575
  9
$DIMLFAC
 40
5.0
  9
$DIMTOFL
 70
     1
  9
$DIMTVP
 40
0.0
  9
$DIMTIX
 70
     0
  9
$DIMSOXD
 70
     0
  9
$DIMSAH
 70
     0
  9
$DIMBLK1
  1

  9
$DIMBLK2
  1

  9
$DIMSTYLE
  2
ISO-25
  9
$DIMCLRD
 70
     0
  9
$DIMCLRE
 70
     0
  9
$DIMCLRT
 70
     0
  9
$DIMTFAC
 40
1.0
  9
$DIMGAP
 40
1.524
  9
$DIMJUST
 70
     0
  9
$DIMSD1
 70
     0
  9
$DIMSD2
 70
     0
  9
$DIMTOLJ
 70
     0
  9
$DIMTZIN
 70
     0
  9
$DIMALTZ
 70
     0
  9
$DIMALTTZ
 70
     0
  9
$DIMUPT
 70
     0
  9
$DIMDEC
 70
     2
  9
$DIMTDEC
 70
     2
  9
$DIMALTU
 70
     2
  9
$DIMALTTD
 70
     3
  9
$DIMTXSTY
  7
Standard
  9
$DIMAUNIT
 70
     0
  9
$DIMADEC
 70
     0
  9
$DIMALTRND
 40
0.0
  9
$DIMAZIN
 70
     0
  9
$DIMDSEP
 70
    44
  9
$DIMATFIT
 70
     3
  9
$DIMFRAC
 70
     0
  9
$DIMLDRBLK
  1

  9
$DIMLUNIT
 70
     2
  9
$DIMLWD
 70
    -2
  9
$DIMLWE
 70
    -2
  9
$DIMTMOVE
 70
     0
  9
$LUNITS
 70
     2
  9
$LUPREC
 70
     2
  9
$SKETCHINC
 40
1.0
  9
$FILLETRAD
 40
10.0
  9
$AUNITS
 70
     0
  9
$AUPREC
 70
     0
  9
$MENU
  1
.
  9
$ELEVATION
 40
0.0
  9
$PELEVATION
 40
0.0
  9
$THICKNESS
 40
0.0
  9
$LIMCHECK
 70
     0
  9
$CHAMFERA
 40
10.0
  9
$CHAMFERB
 40
10.0
  9
$CHAMFERC
 40
20.0
  9
$CHAMFERD
 40
0.0
  9
$SKPOLY
 70
     0
  9
$TDCREATE
 40
2453354.092125822
  9
$TDUCREATE
 40
2453353.717125822
  9
$TDUPDATE
 40
2454792.499439653
  9
$TDUUPDATE
 40
2454792.124439653
  9
$TDINDWG
 40
0.1051851968
  9
$TDUSRTIMER
 40
0.1051851968
  9
$USRTIMER
 70
     1
  9
$ANGBASE
 50
0.0
  9
$ANGDIR
 70
     0
  9
$PDMODE
 70
     0
  9
$PDSIZE
 40
-1.0
  9
$PLINEWID
 40
0.0
  9
$SPLFRAME
 70
     0
  9
$SPLINETYPE
 70
     6
  9
$SPLINESEGS
 70
     8
  9
$HANDSEED
  5
A47
  9
$SURFTAB1
 70
     6
  9
$SURFTAB2
 70
     6
  9
$SURFTYPE
 70
     6
  9
$SURFU
 70
     6
  9
$SURFV
 70
     6
  9
$UCSBASE
  2

  9
$UCSNAME
  2

  9
$UCSORG
 10
0.0
 20
0.0
 30
0.0
  9
$UCSXDIR
 10
1.0
 20
0.0
 30
0.0
  9
$UCSYDIR
 10
0.0
 20
1.0
 30
0.0
  9
$UCSORTHOREF
  2

  9
$UCSORTHOVIEW
 70
     0
  9
$UCSORGTOP
 10
0.0
 20
0.0
 30
0.0
  9
$UCSORGBOTTOM
 10
0.0
 20
0.0
 30
0.0
  9
$UCSORGLEFT
 10
0.0
 20
0.0
 30
0.0
  9
$UCSORGRIGHT
 10
0.0
 20
0.0
 30
0.0
  9
$UCSORGFRONT
 10
0.0
 20
0.0
 30
0.0
  9
$UCSORGBACK
 10
0.0
 20
0.0
 30
0.0
  9
$PUCSBASE
  2

  9
$PUCSNAME
  2

  9
$PUCSORG
 10
0.0
 20
0.0
 30
0.0
  9
$PUCSXDIR
 10
1.0
 20
0.0
 30
0.0
  9
$PUCSYDIR
 10
0.0
 20
1.0
 30
0.0
  9
$PUCSORTHOREF
  2

  9
$PUCSORTHOVIEW
 70
     0
  9
$PUCSORGTOP
 10
0.0
 20
0.0
 30
0.0
  9
$PUCSORGBOTTOM
 10
0.0
 20
0.0
 30
0.0
  9
$PUCSORGLEFT
 10
0.0
 20
0.0
 30
0.0
  9
$PUCSORGRIGHT
 10
0.0
 20
0.0
 30
0.0
  9
$PUCSORGFRONT
 10
0.0
 20
0.0
 30
0.0
  9
$PUCSORGBACK
 10
0.0
 20
0.0
 30
0.0
  9
$USERI1
 70
     0
  9
$USERI2
 70
     0
  9
$USERI3
 70
     0
  9
$USERI4
 70
     0
  9
$USERI5
 70
     0
  9
$USERR1
 40
0.0
  9
$USERR2
 40
0.0
  9
$USERR3
 40
0.0
  9
$USERR4
 40
0.0
  9
$USERR5
 40
0.0
  9
$WORLDVIEW
 70
     1
  9
$SHADEDGE
 70
     3
  9
$SHADEDIF
 70
    70
  9
$TILEMODE
 70
     1
  9
$MAXACTVP
 70
    64
  9
$PINSBASE
 10
0.0
 20
0.0
 30
0.0
  9
$PLIMCHECK
 70
     0
  9
$PEXTMIN
 10
1.000000000000000E+20
 20
1.000000000000000E+20
 30
1.000000000000000E+20
  9
$PEXTMAX
 10
-1.000000000000000E+20
 20
-1.000000000000000E+20
 30
-1.000000000000000E+20
  9
$PLIMMIN
 10
0.0
 20
0.0
  9
$PLIMMAX
 10
420.0
 20
297.0
  9
$UNITMODE
 70
     0
  9
$VISRETAIN
 70
     1
  9
$PLINEGEN
 70
     0
  9
$PSLTSCALE
 70
     1
  9
$TREEDEPTH
 70
  3020
  9
$CMLSTYLE
  2
Standard
  9
$CMLJUST
 70
     0
  9
$CMLSCALE
 40
20.0
  9
$PROXYGRAPHICS
 70
     1
  9
$MEASUREMENT
 70
     1
  9
$CELWEIGHT
370
    -1
  9
$ENDCAPS
280
     0
  9
$JOINSTYLE
280
     0
  9
$LWDISPLAY
290
     1
  9
$INSUNITS
 70
     4
  9
$HYPERLINKBASE
  1

  9
$STYLESHEET
  1

  9
$XEDIT
290
     0
  9
$CEPSNTYPE
380
     0
  9
$PSTYLEMODE
290
     1
  9
$FINGERPRINTGUID
  2
{257DC2E9-6F10-4E4F-82E0-1B00A429FAE1}
  9
$VERSIONGUID
  2
{FAEB1C32-E019-11D5-929B-00C0DF256EC4}
  9
$EXTNAMES
290
     1
  9
$PSVPSCALE
 40
0.0
  9
$OLESTARTUP
290
     0
  9
$SORTENTS
280
   127
  9
$INDEXCTL
280
     0
  9
$HIDETEXT
280
     1
  9
$XCLIPFRAME
290
     0
  9
$HALOGAP
280
     0
  9
$OBSCOLOR
 70
   257
  9
$OBSLTYPE
280
     0
  9
$INTERSECTIONDISPLAY
280
     0
  9
$INTERSECTIONCOLOR
 70
   257
  9
$DIMASSOC
280
     2
  9
$PROJECTNAME
  1

  0
ENDSEC
  0
SECTION
  2
CLASSES
  0
CLASS
  1
ACDBDICTIONARYWDFLT
  2
AcDbDictionaryWithDefault
  3
ObjectDBX Classes
 90
        0
 91
        3
280
     0
281
     0
  0
CLASS
  1
ACDBPLACEHOLDER
  2
AcDbPlaceHolder
  3
ObjectDBX Classes
 90
        0
 91
        1
280
     0
281
     0
  0
CLASS
  1
LAYOUT
  2
AcDbLayout
  3
ObjectDBX Classes
 90
        0
 91
        1
280
     0
281
     0
  0
CLASS
  1
DICTIONARYVAR
  2
AcDbDictionaryVar
  3
ObjectDBX Classes
 90
        0
 91
        3
280
     0
281
     0
  0
CLASS
  1
TABLESTYLE
  2
AcDbTableStyle
  3
ObjectDBX Classes
 90
     2047
 91
        3
280
     0
281
     0
  0
CLASS
  1
SCALE
  2
AcDbScale
  3
ObjectDBX Classes
 90
     1153
 91
       67
280
     1
281
     0
  0
CLASS
  1
VISUALSTYLE
  2
AcDbVisualStyle
  3
ObjectDBX Classes
 90
     4095
 91
       33
280
     1
281
     0
  0
ENDSEC
  0
SECTION
  2
TABLES
  0
TABLE
  2
VPORT
  5
8
330
0
100
AcDbSymbolTable
 70
     2
  0
VPORT
  5
97
330
8
100
AcDbSymbolTableRecord
100
AcDbViewportTableRecord
  2
*Active
 70
     0
 10
0.0
 20
0.0
 11
1.0
 21
1.0
 12
28.91340634359045
 22
70.07051067573732
 13
0.0
 23
0.0
 14
10.0
 24
10.0
 15
10.0
 25
10.0
 16
0.0
 26
0.0
 36
1.0
 17
0.0
 27
0.0
 37
0.0
 40
3.698496366123817
 41
1.0
 42
50.0
 43
0.0
 44
0.0
 50
0.0
 51
0.0
 71
    16
 72
  2000
 73
     1
 74
     1
 75
     0
 76
     0
 77
     0
 78
     0
281
     0
 65
     0
110
0.0
120
0.0
130
0.0
111
1.0
121
0.0
131
0.0
112
0.0
122
1.0
132
0.0
 79
     0
146
0.0
  0
ENDTAB
  0
TABLE
  2
LTYPE
  5
5
330
0
100
AcDbSymbolTable
 70
     6
  0
LTYPE
  5
14
330
5
100
AcDbSymbolTableRecord
100
AcDbLinetypeTableRecord
  2
ByBlock
 70
     0
  3

 72
    65
 73
     0
 40
0.0
  0
LTYPE
  5
15
330
5
100
AcDbSymbolTableRecord
100
AcDbLinetypeTableRecord
  2
ByLayer
 70
     0
  3

 72
    65
 73
     0
 40
0.0
  0
LTYPE
  5
16
330
5
100
AcDbSymbolTableRecord
100
AcDbLinetypeTableRecord
  2
Continuous
 70
     0
  3
Solid line
 72
    65
 73
     0
 40
0.0
  0
LTYPE
  5
A3E
330
5
100
AcDbSymbolTableRecord
100
AcDbLinetypeTableRecord
  2
HIDDEN
 70
     0
  3
Hidden __ __ __ __ __ __ __ __ __ __ __ __ __ __
 72
    65
 73
     2
 40
1.905
 49
1.27
 74
     4
 75
     0
340
0
 46
1.0
 50
0.0
 44
0.0
 45
0.0
 49
-0.635
 74
     4
 75
     0
340
0
 46
1.0
 50
0.0
 44
0.0
 45
0.0
  0
LTYPE
  5
A3F
330
5
100
AcDbSymbolTableRecord
100
AcDbLinetypeTableRecord
  2
PHANTOM
 70
     0
  3
Phantom ______  __  __  ______  __  __  ______
 72
    65
 73
     6
 40
12.7
 49
6.35
 74
     4
 75
     0
340
0
 46
1.0
 50
0.0
 44
0.0
 45
0.0
 49
-1.27
 74
     4
 75
     0
340
0
 46
1.0
 50
0.0
 44
0.0
 45
0.0
 49
1.27
 74
     4
 75
     0
340
0
 46
1.0
 50
0.0
 44
0.0
 45
0.0
 49
-1.27
 74
     4
 75
     0
340
0
 46
1.0
 50
0.0
 44
0.0
 45
0.0
 49
1.27
 74
     4
 75
     0
340
0
 46
1.0
 50
0.0
 44
0.0
 45
0.0
 49
-1.27
 74
     4
 75
     0
340
0
 46
1.0
 50
0.0
 44
0.0
 45
0.0
  0
LTYPE
  5
A40
330
5
100
AcDbSymbolTableRecord
100
AcDbLinetypeTableRecord
  2
CENTER
 70
     0
  3
Center ____ _ ____ _ ____ _ ____ _ ____ _ ____
 72
    65
 73
     4
 40
10.16
 49
6.35
 74
     4
 75
     0
340
0
 46
1.0
 50
0.0
 44
0.0
 45
0.0
 49
-1.27
 74
     4
 75
     0
340
0
 46
1.0
 50
0.0
 44
0.0
 45
0.0
 49
1.27
 74
     4
 75
     0
340
0
 46
1.0
 50
0.0
 44
0.0
 45
0.0
 49
-1.27
 74
     4
 75
     0
340
0
 46
1.0
 50
0.0
 44
0.0
 45
0.0
  0
LTYPE
  5
A41
330
5
100
AcDbSymbolTableRecord
100
AcDbLinetypeTableRecord
  2
CENTERX2
 70
     0
  3
Center (2x) ________  __  ________  __  _____
 72
    65
 73
     4
 40
20.32
 49
12.7
 74
     4
 75
     0
340
0
 46
1.0
 50
0.0
 44
0.0
 45
0.0
 49
-2.54
 74
     4
 75
     0
340
0
 46
1.0
 50
0.0
 44
0.0
 45
0.0
 49
2.54
 74
     4
 75
     0
340
0
 46
1.0
 50
0.0
 44
0.0
 45
0.0
 49
-2.54
 74
     4
 75
     0
340
0
 46
1.0
 50
0.0
 44
0.0
 45
0.0
  0
LTYPE
  5
A42
330
5
100
AcDbSymbolTableRecord
100
AcDbLinetypeTableRecord
  2
DOT2
 70
     0
  3
Dot (.5x) ........................................
 72
    65
 73
     2
 40
0.635
 49
0.0
 74
     4
 75
     0
340
0
 46
1.0
 50
0.0
 44
0.0
 45
0.0
 49
-0.635
 74
     4
 75
     0
340
0
 46
1.0
 50
0.0
 44
0.0
 45
0.0
  0
ENDTAB
  0
TABLE
  2
LAYER
  5
2
330
0
100
AcDbSymbolTable
 70
     2
  0
LAYER
  5
10
330
2
100
AcDbSymbolTableRecord
100
AcDbLayerTableRecord
  2
0
 70
     0
 62
     7
  6
Continuous
370
    -3
390
F
  0
LAYER
  5
276
330
2
100
AcDbSymbolTableRecord
100
AcDbLayerTableRecord
  2
DEFPOINTS
 70
     0
 62
     7
  6
Continuous
290
     0
370
    -3
390
F
  0
ENDTAB
  0
TABLE
  2
STYLE
  5
3
330
0
100
AcDbSymbolTable
 70
     1
  0
STYLE
  5
11
330
3
100
AcDbSymbolTableRecord
100
AcDbTextStyleTableRecord
  2
Standard
 70
     0
 40
0.0
 41
1.0
 50
0.0
 71
     0
 42
2.5
  3
txt
  4
bigfont
  0
ENDTAB
  0
TABLE
  2
VIEW
  5
6
330
0
100
AcDbSymbolTable
 70
     0
  0
ENDTAB
  0
TABLE
  2
UCS
  5
7
330
0
100
AcDbSymbolTable
 70
     0
  0
ENDTAB
  0
TABLE
  2
APPID
  5
9
330
0
100
AcDbSymbolTable
 70
     1
  0
APPID
  5
12
330
9
100
AcDbSymbolTableRecord
100
AcDbRegAppTableRecord
  2
ACAD
 70
     0
  0
ENDTAB
  0
TABLE
  2
DIMSTYLE
  5
A
330
0
100
AcDbSymbolTable
 70
     2
100
AcDbDimStyleTable
  0
DIMSTYLE
105
27
330
A
100
AcDbSymbolTableRecord
100
AcDbDimStyleTableRecord
  2
Standard
 70
     0
278
     0
340
11
  0
DIMSTYLE
105
565
330
A
100
AcDbSymbolTableRecord
100
AcDbDimStyleTableRecord
  2
ISO-25
 70
     0
 41
2.5
 42
0.625
 43
3.75
 44
1.25
 73
     0
 74
     0
 77
     1
 78
     8
140
2.5
141
2.5
143
0.03937007874016
147
0.625
171
     3
172
     1
271
     2
272
     2
274
     3
278
    44
283
     0
284
     8
340
11
  0
ENDTAB
  0
TABLE
  2
BLOCK_RECORD
  5
1
330
0
100
AcDbSymbolTable
 70
     1
  0
BLOCK_RECORD
  5
1F
330
1
100
AcDbSymbolTableRecord
100
AcDbBlockTableRecord
  2
*Model_Space
340
22
  0
BLOCK_RECORD
  5
73
330
1
100
AcDbSymbolTableRecord
100
AcDbBlockTableRecord
  2
*Paper_Space
340
74
  0
BLOCK_RECORD
  5
23
330
1
100
AcDbSymbolTableRecord
100
AcDbBlockTableRecord
  2
*Paper_Space0
340
26
  0
ENDTAB
  0
ENDSEC
  0
SECTION
  2
BLOCKS
  0
BLOCK
  5
20
330
1F
100
AcDbEntity
  8
0
100
AcDbBlockBegin
  2
*Model_Space
 70
     0
 71
     0
 10
0.0
 20
0.0
 30
0.0
  3
*Model_Space
  1

  0
ENDBLK
  5
21
330
1F
100
AcDbEntity
  8
0
100
AcDbBlockEnd
  0
BLOCK
  5
75
330
73
100
AcDbEntity
 67
     1
  8
0
100
AcDbBlockBegin
  2
*Paper_Space
 70
     0
 71
     0
 10
0.0
 20
0.0
 30
0.0
  3
*Paper_Space
  1

  0
ENDBLK
  5
76
330
73
100
AcDbEntity
 67
     1
  8
0
100
AcDbBlockEnd
  0
BLOCK
  5
A45
330
23
100
AcDbEntity
  8
0
100
AcDbBlockBegin
  2
*Paper_Space0
 70
     0
 71
     0
 10
0.0
 20
0.0
 30
0.0
  3
*Paper_Space0
  1

  0
ENDBLK
  5
A46
330
23
100
AcDbEntity
  8
0
100
AcDbBlockEnd
  0
ENDSEC
  0
SECTION
  2
ENTITIES
  0
ARC
  5
129
330
1F
100
AcDbEntity
  8
0
  6
Continuous
 62
     7
370
    15
100
AcDbCircle
 10
29.29293108217263
 20
69.2592639569593
 30
0.0
 40
0.1777450000000016
100
AcDbArc
 50
270.0
 51
30.15955750433573
  0
LINE
  5
12A
330
1F
100
AcDbEntity
  8
0
  6
Continuous
 62
     7
370
    15
100
AcDbLine
 10
29.44661472418793
 20
69.34856477946944
 30
0.0
 11
28.49123334684112
 21
70.99274275041762
 31
0.0
  0
ARC
  5
12B
330
1F
100
AcDbEntity
  8
0
  6
Continuous
 62
     7
370
    15
100
AcDbCircle
 10
28.33754972061522
 20
70.9034418753659
 30
0.0
 40
0.1777450000000032
100
AcDbArc
 50
30.15955750433543
 51
149.8404424956644
  0
LINE
  5
12C
330
1F
100
AcDbEntity
  8
0
  6
Continuous
 62
     7
370
    15
100
AcDbLine
 10
28.18386622456351
 20
70.99274275041762
 30
0.0
 11
27.22848484721669
 21
69.34856477946944
 31
0.0
  0
ARC
  5
12D
330
1F
100
AcDbEntity
  8
0
  6
Continuous
 62
     7
370
    15
100
AcDbCircle
 10
27.38216835905781
 20
69.2592639569593
 30
0.0
 40
0.1777450000000001
100
AcDbArc
 50
149.840442495664
 51
270.000000000003
  0
LINE
  5
12E
330
1F
100
AcDbEntity
  8
0
  6
Continuous
 62
     7
370
    15
100
AcDbLine
 10
27.3821684083555
 20
69.08151895603228
 30
0.0
 11
29.29293103061878
 21
69.08151895603228
 31
0.0
  0
LINE
  5
1D3
330
1F
100
AcDbEntity
  8
0
  6
Continuous
 62
     7
370
    15
100
AcDbLine
 10
28.28336008318403
 20
69.65098432061838
 30
0.0
 11
28.35623915054538
 21
69.65098432061838
 31
0.0
  0
SPLINE
  5
1D4
330
1F
100
AcDbEntity
  8
0
  6
Continuous
 62
     7
370
    15
100
AcDbSpline
210
0.0
220
0.0
230
1.0
 70
    12
 71
     3
 72
    11
 73
     7
 74
     0
 42
0.00000001
 43
0.00000001
 40
0.0
 40
0.0
 40
0.0
 40
0.0
 40
0.2499999999999999
 40
0.5000000000000001
 40
0.7499999999999999
 40
1.0
 40
1.0
 40
1.0
 40
1.0
 10
28.35623914577036
 20
70.36196433238003
 30
0.0
 41
1.0
 10
28.39178814577036
 20
70.3027159990467
 30
0.0
 41
1.0
 10
28.46288614577036
 20
70.18421933238002
 30
0.0
 41
1.0
 10
28.35623914577036
 20
70.00647433238002
 30
0.0
 41
1.0
 10
28.24959214577036
 20
69.82872933238002
 30
0.0
 41
1.0
 10
28.32069014577036
 20
69.71023266571335
 30
0.0
 41
1.0
 10
28.35623914577036
 20
69.65098433238002
 30
0.0
 41
1.0
  0
LINE
  5
1D5
330
1F
100
AcDbEntity
  8
0
  6
Continuous
 62
     7
370
    15
100
AcDbLine
 10
28.28161888901034
 20
70.36071416227165
 30
0.0
 11
28.35623915054538
 21
70.36196430472674
 31
0.0
  0
SPLINE
  5
1D6
330
1F
100
AcDbEntity
  8
0
  6
Continuous
 62
     7
370
    15
100
AcDbSpline
210
0.0
220
0.0
230
1.0
 70
    12
 71
     3
 72
    11
 73
     7
 74
     0
 42
0.00000001
 43
0.00000001
 40
0.0
 40
0.0
 40
0.0
 40
0.0
 40
0.2499999999999999
 40
0.5000000000000001
 40
0.75
 40
1.0
 40
1.0
 40
1.0
 40
1.0
 10
28.28161890471282
 20
70.36071417688662
 30
0.0
 41
1.0
 10
28.31716790471282
 20
70.30146584355329
 30
0.0
 41
1.0
 10
28.38823000232701
 20
70.18294340048469
 30
0.0
 41
1.0
 10
28.28174456306314
 20
70.00531439429335
 30
0.0
 41
1.0
 10
28.17450517369734
 20
69.82714408366158
 30
0.0
 41
1.0
 10
28.24707517151539
 20
69.70970424947387
 30
0.0
 41
1.0
 10
28.28336017042441
 20
69.65098433238002
 30
0.0
 41
1.0
  0
LINE
  5
1D7
330
1F
100
AcDbEntity
  8
0
  6
Continuous
 62
     7
370
    15
100
AcDbLine
 10
27.94486891640612
 20
69.51002460079471
 30
0.0
 11
27.94486891640612
 21
69.42931789027311
 31
0.0
  0
LINE
  5
1D8
330
1F
100
AcDbEntity
  8
0
  6
Continuous
 62
     7
370
    15
100
AcDbLine
 10
27.94486891640612
 20
69.42931789027311
 30
0.0
 11
28.73023052256816
 21
69.42931789027311
 31
0.0
  0
LINE
  5
1D9
330
1F
100
AcDbEntity
  8
0
  6
Continuous
 62
     7
370
    15
100
AcDbLine
 10
28.73023052256816
 20
69.51002460079471
 30
0.0
 11
28.73023052256816
 21
69.42931789027311
 31
0.0
  0
LINE
  5
1DA
330
1F
100
AcDbEntity
  8
0
  6
Continuous
 62
     7
370
    15
100
AcDbLine
 10
27.94486891640612
 20
69.51002460079471
 30
0.0
 11
28.73023052256816
 21
69.51002460079471
 31
0.0
  0
LINE
  5
1DB
330
1F
100
AcDbEntity
  8
0
  6
Continuous
 62
     7
370
    15
100
AcDbLine
 10
28.05584660480806
 20
69.65098432061838
 30
0.0
 11
28.12872567216941
 21
69.65098432061838
 31
0.0
  0
SPLINE
  5
1DC
330
1F
100
AcDbEntity
  8
0
  6
Continuous
 62
     7
370
    15
100
AcDbSpline
210
0.0
220
0.0
230
1.0
 70
    12
 71
     3
 72
    11
 73
     7
 74
     0
 42
0.00000001
 43
0.00000001
 40
0.0
 40
0.0
 40
0.0
 40
0.0
 40
0.2499999999999999
 40
0.5000000000000001
 40
0.7499999999999999
 40
1.0
 40
1.0
 40
1.0
 40
1.0
 10
28.12872554577037
 20
70.36196433238003
 30
0.0
 41
1.0
 10
28.16427454577036
 20
70.3027159990467
 30
0.0
 41
1.0
 10
28.23537254577036
 20
70.18421933238002
 30
0.0
 41
1.0
 10
28.12872554577037
 20
70.00647433238002
 30
0.0
 41
1.0
 10
28.02207854577036
 20
69.82872933238002
 30
0.0
 41
1.0
 10
28.09317654577036
 20
69.71023266571335
 30
0.0
 41
1.0
 10
28.12872554577037
 20
69.65098433238002
 30
0.0
 41
1.0
  0
LINE
  5
1DD
330
1F
100
AcDbEntity
  8
0
  6
Continuous
 62
     7
370
    15
100
AcDbLine
 10
28.05410541063436
 20
70.36071416227165
 30
0.0
 11
28.12872567216941
 21
70.36196430472674
 31
0.0
  0
SPLINE
  5
1DE
330
1F
100
AcDbEntity
  8
0
  6
Continuous
 62
     7
370
    15
100
AcDbSpline
210
0.0
220
0.0
230
1.0
 70
    12
 71
     3
 72
    11
 73
     7
 74
     0
 42
0.00000001
 43
0.00000001
 40
0.0
 40
0.0
 40
0.0
 40
0.0
 40
0.2499999999999999
 40
0.5000000000000001
 40
0.75
 40
1.0
 40
1.0
 40
1.0
 40
1.0
 10
28.05410530471282
 20
70.36071417688662
 30
0.0
 41
1.0
 10
28.08965430471282
 20
70.30146584355329
 30
0.0
 41
1.0
 10
28.16071640232702
 20
70.18294340048469
 30
0.0
 41
1.0
 10
28.05423096306314
 20
70.00531439429336
 30
0.0
 41
1.0
 10
27.94699157369734
 20
69.82714408366158
 30
0.0
 41
1.0
 10
28.01956157151539
 20
69.70970424947387
 30
0.0
 41
1.0
 10
28.05584657042441
 20
69.65098433238002
 30
0.0
 41
1.0
  0
LINE
  5
1DF
330
1F
100
AcDbEntity
  8
0
  6
Continuous
 62
     7
370
    15
100
AcDbLine
 10
28.51087382642069
 20
69.65098432061838
 30
0.0
 11
28.5837527613517
 21
69.65098432061838
 31
0.0
  0
SPLINE
  5
1E0
330
1F
100
AcDbEntity
  8
0
  6
Continuous
 62
     7
370
    15
100
AcDbSpline
210
0.0
220
0.0
230
1.0
 70
    12
 71
     3
 72
    11
 73
     7
 74
     0
 42
0.00000001
 43
0.00000001
 40
0.0
 40
0.0
 40
0.0
 40
0.0
 40
0.2499999999999999
 40
0.5000000000000002
 40
0.75
 40
1.0
 40
1.0
 40
1.0
 40
1.0
 10
28.58375274577037
 20
70.36196433238003
 30
0.0
 41
1.0
 10
28.61930174577036
 20
70.3027159990467
 30
0.0
 41
1.0
 10
28.69039974577036
 20
70.18421933238002
 30
0.0
 41
1.0
 10
28.58375274577037
 20
70.00647433238002
 30
0.0
 41
1.0
 10
28.47710574577036
 20
69.82872933238002
 30
0.0
 41
1.0
 10
28.54820374577037
 20
69.71023266571335
 30
0.0
 41
1.0
 10
28.58375274577037
 20
69.65098433238002
 30
0.0
 41
1.0
  0
LINE
  5
1E1
330
1F
100
AcDbEntity
  8
0
  6
Continuous
 62
     7
370
    15
100
AcDbLine
 10
28.509132632247
 20
70.36071416227165
 30
0.0
 11
28.5837527613517
 21
70.36196430472674
 31
0.0
  0
SPLINE
  5
1E2
330
1F
100
AcDbEntity
  8
0
  6
Continuous
 62
     7
370
    15
100
AcDbSpline
210
0.0
220
0.0
230
1.0
 70
    12
 71
     3
 72
    11
 73
     7
 74
     0
 42
0.00000001
 43
0.00000001
 40
0.0
 40
0.0
 40
0.0
 40
0.0
 40
0.2499999999999999
 40
0.5000000000000001
 40
0.75
 40
1.0
 40
1.0
 40
1.0
 40
1.0
 10
28.50913250471282
 20
70.36071417688662
 30
0.0
 41
1.0
 10
28.54468150471282
 20
70.30146584355329
 30
0.0
 41
1.0
 10
28.61574360232702
 20
70.18294340048469
 30
0.0
 41
1.0
 10
28.50925816306314
 20
70.00531439429336
 30
0.0
 41
1.0
 10
28.40201877369734
 20
69.82714408366158
 30
0.0
 41
1.0
 10
28.47458877151539
 20
69.70970424947387
 30
0.0
 41
1.0
 10
28.51087377042441
 20
69.65098433238002
 30
0.0
 41
1.0
  0
ARC
  5
1E3
330
1F
100
AcDbEntity
  8
0
  6
Continuous
 62
     7
370
    15
100
AcDbCircle
 10
27.38216835905781
 20
69.2592639569593
 30
0.0
 40
0.0710980000000047
100
AcDbArc
 50
149.8404424956609
 51
269.9999999999992
  0
LINE
  5
1E4
330
1F
100
AcDbEntity
  8
0
  6
Continuous
 62
     7
370
    15
100
AcDbLine
 10
28.27607641421893
 20
70.9391622274855
 30
0.0
 11
27.32069503687211
 21
69.29498428964492
 31
0.0
  0
ARC
  5
1E5
330
1F
100
AcDbEntity
  8
0
  6
Continuous
 62
     7
370
    15
100
AcDbCircle
 10
28.33754972061522
 20
70.9034418753659
 30
0.0
 40
0.0710979999999945
100
AcDbArc
 50
30.15955750433064
 51
149.8404424956588
  0
LINE
  5
1E6
330
1F
100
AcDbEntity
  8
0
  6
Continuous
 62
     7
370
    15
100
AcDbLine
 10
29.35440453453251
 20
69.29498428964492
 30
0.0
 11
28.3990231571857
 21
70.9391622274855
 31
0.0
  0
ARC
  5
1E7
330
1F
100
AcDbEntity
  8
0
  6
Continuous
 62
     7
370
    15
100
AcDbCircle
 10
29.29293108217263
 20
69.2592639569593
 30
0.0
 40
0.0710980000000063
100
AcDbArc
 50
270.0
 51
30.15955750433767
  0
LINE
  5
1E8
330
1F
100
AcDbEntity
  8
0
  6
Continuous
 62
     7
370
    15
100
AcDbLine
 10
27.3821684083555
 20
69.1881659569593
 30
0.0
 11
29.29293103061878
 21
69.1881659569593
 31
0.0
  0
LINE
  5
300
330
1F
100
AcDbEntity
  8
0
100
AcDbLine
 10
29.40824081274598
 20
69.12434118321842
 30
0.0
 11
29.42959145153314
 21
69.14569182200557
 31
0.0
  0
LINE
  5
56C
330
1F
100
AcDbEntity
  8
0
100
AcDbLine
 10
28.72966577873781
 20
69.42931789027311
 30
0.0
 11
28.73023052256816
 21
69.42988263410346
 31
0.0
  0
LINE
  5
579
330
1F
100
AcDbEntity
  8
0
100
AcDbLine
 10
28.72965408556967
 20
69.42930619710496
 30
0.0
 11
28.73023052256804
 21
69.42988263410334
 31
0.0
  0
LINE
  5
57A
330
1F
100
AcDbEntity
  8
0
100
AcDbLine
 10
28.72217044685723
 20
69.42931789027311
 30
0.0
 11
28.73023052256816
 21
69.43737796598403
 31
0.0
  0
LINE
  5
57B
330
1F
100
AcDbEntity
  8
0
100
AcDbLine
 10
28.71467511497666
 20
69.42931789027311
 30
0.0
 11
28.73023052256816
 21
69.44487329786462
 31
0.0
  0
LINE
  5
57C
330
1F
100
AcDbEntity
  8
0
100
AcDbLine
 10
28.70717978309608
 20
69.42931789027311
 30
0.0
 11
28.73023052256817
 21
69.4523686297452
 31
0.0
  0
LINE
  5
57D
330
1F
100
AcDbEntity
  8
0
100
AcDbLine
 10
28.69968445121551
 20
69.42931789027311
 30
0.0
 11
28.73023052256816
 21
69.45986396162577
 31
0.0
  0
LINE
  5
57E
330
1F
100
AcDbEntity
  8
0
100
AcDbLine
 10
28.69218911933493
 20
69.42931789027311
 30
0.0
 11
28.73023052256816
 21
69.46735929350635
 31
0.0
  0
LINE
  5
57F
330
1F
100
AcDbEntity
  8
0
100
AcDbLine
 10
28.68469378745436
 20
69.42931789027311
 30
0.0
 11
28.73023052256816
 21
69.47485462538691
 31
0.0
  0
LINE
  5
580
330
1F
100
AcDbEntity
  8
0
100
AcDbLine
 10
28.67719845557378
 20
69.42931789027311
 30
0.0
 11
28.73023052256816
 21
69.4823499572675
 31
0.0
  0
LINE
  5
581
330
1F
100
AcDbEntity
  8
0
100
AcDbLine
 10
28.6697031236932
 20
69.42931789027311
 30
0.0
 11
28.73023052256817
 21
69.48984528914808
 31
0.0
  0
LINE
  5
582
330
1F
100
AcDbEntity
  8
0
100
AcDbLine
 10
28.66220779181262
 20
69.4293178902731
 30
0.0
 11
28.73023052256816
 21
69.49734062102866
 31
0.0
  0
LINE
  5
583
330
1F
100
AcDbEntity
  8
0
100
AcDbLine
 10
28.65471245993204
 20
69.42931789027311
 30
0.0
 11
28.73023052256817
 21
69.50483595290923
 31
0.0
  0
LINE
  5
584
330
1F
100
AcDbEntity
  8
0
100
AcDbLine
 10
28.64721712805146
 20
69.42931789027311
 30
0.0
 11
28.72792383857307
 21
69.51002460079471
 31
0.0
  0
LINE
  5
585
330
1F
100
AcDbEntity
  8
0
100
AcDbLine
 10
28.63972179617089
 20
69.42931789027311
 30
0.0
 11
28.72042850669248
 21
69.5100246007947
 31
0.0
  0
LINE
  5
586
330
1F
100
AcDbEntity
  8
0
100
AcDbLine
 10
28.63222646429031
 20
69.42931789027311
 30
0.0
 11
28.71293317481192
 21
69.51002460079471
 31
0.0
  0
LINE
  5
587
330
1F
100
AcDbEntity
  8
0
100
AcDbLine
 10
28.62473113240974
 20
69.42931789027311
 30
0.0
 11
28.70543784293134
 21
69.51002460079471
 31
0.0
  0
LINE
  5
588
330
1F
100
AcDbEntity
  8
0
100
AcDbLine
 10
28.61723580052916
 20
69.42931789027311
 30
0.0
 11
28.69794251105075
 21
69.51002460079471
 31
0.0
  0
LINE
  5
589
330
1F
100
AcDbEntity
  8
0
100
AcDbLine
 10
28.60974046864858
 20
69.4293178902731
 30
0.0
 11
28.69044717917019
 21
69.51002460079471
 31
0.0
  0
LINE
  5
58A
330
1F
100
AcDbEntity
  8
0
100
AcDbLine
 10
28.60224513676801
 20
69.42931789027311
 30
0.0
 11
28.6829518472896
 21
69.51002460079471
 31
0.0
  0
LINE
  5
58B
330
1F
100
AcDbEntity
  8
0
100
AcDbLine
 10
28.59474980488743
 20
69.42931789027311
 30
0.0
 11
28.67545651540903
 21
69.51002460079471
 31
0.0
  0
LINE
  5
58C
330
1F
100
AcDbEntity
  8
0
100
AcDbLine
 10
28.58725447300685
 20
69.42931789027311
 30
0.0
 11
28.66796118352845
 21
69.51002460079471
 31
0.0
  0
LINE
  5
58D
330
1F
100
AcDbEntity
  8
0
100
AcDbLine
 10
28.57975914112627
 20
69.42931789027311
 30
0.0
 11
28.66046585164787
 21
69.51002460079471
 31
0.0
  0
LINE
  5
58E
330
1F
100
AcDbEntity
  8
0
100
AcDbLine
 10
28.57226380924569
 20
69.4293178902731
 30
0.0
 11
28.6529705197673
 21
69.51002460079471
 31
0.0
  0
LINE
  5
58F
330
1F
100
AcDbEntity
  8
0
100
AcDbLine
 10
28.56476847736512
 20
69.42931789027311
 30
0.0
 11
28.64547518788672
 21
69.51002460079471
 31
0.0
  0
LINE
  5
590
330
1F
100
AcDbEntity
  8
0
100
AcDbLine
 10
28.55727314548454
 20
69.42931789027311
 30
0.0
 11
28.63797985600615
 21
69.51002460079471
 31
0.0
  0
LINE
  5
591
330
1F
100
AcDbEntity
  8
0
100
AcDbLine
 10
28.54977781360397
 20
69.42931789027311
 30
0.0
 11
28.63048452412557
 21
69.51002460079471
 31
0.0
  0
LINE
  5
592
330
1F
100
AcDbEntity
  8
0
100
AcDbLine
 10
28.54228248172339
 20
69.42931789027311
 30
0.0
 11
28.62298919224499
 21
69.51002460079471
 31
0.0
  0
LINE
  5
593
330
1F
100
AcDbEntity
  8
0
100
AcDbLine
 10
28.53478714984281
 20
69.4293178902731
 30
0.0
 11
28.61549386036441
 21
69.51002460079471
 31
0.0
  0
LINE
  5
594
330
1F
100
AcDbEntity
  8
0
100
AcDbLine
 10
28.52729181796224
 20
69.42931789027311
 30
0.0
 11
28.60799852848383
 21
69.51002460079471
 31
0.0
  0
LINE
  5
595
330
1F
100
AcDbEntity
  8
0
100
AcDbLine
 10
28.51979648608166
 20
69.42931789027311
 30
0.0
 11
28.60050319660326
 21
69.51002460079471
 31
0.0
  0
LINE
  5
596
330
1F
100
AcDbEntity
  8
0
100
AcDbLine
 10
28.51230115420109
 20
69.42931789027311
 30
0.0
 11
28.59300786472268
 21
69.51002460079471
 31
0.0
  0
LINE
  5
597
330
1F
100
AcDbEntity
  8
0
100
AcDbLine
 10
28.50480582232051
 20
69.42931789027311
 30
0.0
 11
28.58551253284211
 21
69.51002460079471
 31
0.0
  0
LINE
  5
598
330
1F
100
AcDbEntity
  8
0
100
AcDbLine
 10
28.49731049043994
 20
69.42931789027311
 30
0.0
 11
28.57801720096153
 21
69.51002460079471
 31
0.0
  0
LINE
  5
599
330
1F
100
AcDbEntity
  8
0
100
AcDbLine
 10
28.48981515855935
 20
69.42931789027311
 30
0.0
 11
28.57052186908095
 21
69.51002460079471
 31
0.0
  0
LINE
  5
59A
330
1F
100
AcDbEntity
  8
0
100
AcDbLine
 10
28.48231982667877
 20
69.42931789027311
 30
0.0
 11
28.56302653720038
 21
69.51002460079471
 31
0.0
  0
LINE
  5
59B
330
1F
100
AcDbEntity
  8
0
100
AcDbLine
 10
28.4748244947982
 20
69.42931789027311
 30
0.0
 11
28.5555312053198
 21
69.51002460079471
 31
0.0
  0
LINE
  5
59C
330
1F
100
AcDbEntity
  8
0
100
AcDbLine
 10
28.46732916291762
 20
69.42931789027311
 30
0.0
 11
28.54803587343921
 21
69.51002460079471
 31
0.0
  0
LINE
  5
59D
330
1F
100
AcDbEntity
  8
0
100
AcDbLine
 10
28.45983383103705
 20
69.42931789027311
 30
0.0
 11
28.54054054155865
 21
69.51002460079471
 31
0.0
  0
LINE
  5
59E
330
1F
100
AcDbEntity
  8
0
100
AcDbLine
 10
28.45233849915647
 20
69.42931789027311
 30
0.0
 11
28.53304520967806
 21
69.51002460079471
 31
0.0
  0
LINE
  5
59F
330
1F
100
AcDbEntity
  8
0
100
AcDbLine
 10
28.44484316727589
 20
69.4293178902731
 30
0.0
 11
28.52554987779749
 21
69.51002460079471
 31
0.0
  0
LINE
  5
5A0
330
1F
100
AcDbEntity
  8
0
100
AcDbLine
 10
28.43734783539532
 20
69.42931789027311
 30
0.0
 11
28.51805454591692
 21
69.51002460079471
 31
0.0
  0
LINE
  5
5A1
330
1F
100
AcDbEntity
  8
0
100
AcDbLine
 10
28.42985250351474
 20
69.42931789027311
 30
0.0
 11
28.51055921403634
 21
69.51002460079471
 31
0.0
  0
LINE
  5
5A2
330
1F
100
AcDbEntity
  8
0
100
AcDbLine
 10
28.42235717163416
 20
69.42931789027311
 30
0.0
 11
28.50306388215576
 21
69.51002460079471
 31
0.0
  0
LINE
  5
5A3
330
1F
100
AcDbEntity
  8
0
100
AcDbLine
 10
28.41486183975358
 20
69.42931789027311
 30
0.0
 11
28.49556855027519
 21
69.51002460079471
 31
0.0
  0
LINE
  5
5A4
330
1F
100
AcDbEntity
  8
0
100
AcDbLine
 10
28.407366507873
 20
69.4293178902731
 30
0.0
 11
28.48807321839461
 21
69.51002460079471
 31
0.0
  0
LINE
  5
5A5
330
1F
100
AcDbEntity
  8
0
100
AcDbLine
 10
28.39987117599243
 20
69.42931789027311
 30
0.0
 11
28.48057788651403
 21
69.51002460079471
 31
0.0
  0
LINE
  5
5A6
330
1F
100
AcDbEntity
  8
0
100
AcDbLine
 10
28.39237584411185
 20
69.42931789027311
 30
0.0
 11
28.47308255463346
 21
69.51002460079471
 31
0.0
  0
LINE
  5
5A7
330
1F
100
AcDbEntity
  8
0
100
AcDbLine
 10
28.38488051223128
 20
69.42931789027311
 30
0.0
 11
28.46558722275288
 21
69.51002460079471
 31
0.0
  0
LINE
  5
5A8
330
1F
100
AcDbEntity
  8
0
100
AcDbLine
 10
28.3773851803507
 20
69.42931789027311
 30
0.0
 11
28.4580918908723
 21
69.51002460079471
 31
0.0
  0
LINE
  5
5A9
330
1F
100
AcDbEntity
  8
0
100
AcDbLine
 10
28.36988984847012
 20
69.4293178902731
 30
0.0
 11
28.45059655899172
 21
69.51002460079471
 31
0.0
  0
LINE
  5
5AA
330
1F
100
AcDbEntity
  8
0
100
AcDbLine
 10
28.36239451658955
 20
69.42931789027311
 30
0.0
 11
28.44310122711114
 21
69.51002460079471
 31
0.0
  0
LINE
  5
5AB
330
1F
100
AcDbEntity
  8
0
100
AcDbLine
 10
28.35489918470897
 20
69.42931789027311
 30
0.0
 11
28.43560589523057
 21
69.51002460079471
 31
0.0
  0
LINE
  5
5AC
330
1F
100
AcDbEntity
  8
0
100
AcDbLine
 10
28.3474038528284
 20
69.42931789027311
 30
0.0
 11
28.42811056334999
 21
69.51002460079471
 31
0.0
  0
LINE
  5
5AD
330
1F
100
AcDbEntity
  8
0
100
AcDbLine
 10
28.33990852094782
 20
69.42931789027311
 30
0.0
 11
28.42061523146942
 21
69.51002460079471
 31
0.0
  0
LINE
  5
5AE
330
1F
100
AcDbEntity
  8
0
100
AcDbLine
 10
28.33241318906725
 20
69.42931789027311
 30
0.0
 11
28.41311989958884
 21
69.51002460079471
 31
0.0
  0
LINE
  5
5AF
330
1F
100
AcDbEntity
  8
0
100
AcDbLine
 10
28.32491785718666
 20
69.42931789027311
 30
0.0
 11
28.40562456770826
 21
69.51002460079471
 31
0.0
  0
LINE
  5
5B0
330
1F
100
AcDbEntity
  8
0
100
AcDbLine
 10
28.31742252530608
 20
69.42931789027311
 30
0.0
 11
28.39812923582769
 21
69.51002460079471
 31
0.0
  0
LINE
  5
5B1
330
1F
100
AcDbEntity
  8
0
100
AcDbLine
 10
28.30992719342551
 20
69.42931789027311
 30
0.0
 11
28.3906339039471
 21
69.51002460079471
 31
0.0
  0
LINE
  5
5B2
330
1F
100
AcDbEntity
  8
0
100
AcDbLine
 10
28.30243186154493
 20
69.42931789027311
 30
0.0
 11
28.38313857206654
 21
69.51002460079471
 31
0.0
  0
LINE
  5
5B3
330
1F
100
AcDbEntity
  8
0
100
AcDbLine
 10
28.29493652966436
 20
69.42931789027311
 30
0.0
 11
28.37564324018595
 21
69.51002460079471
 31
0.0
  0
LINE
  5
5B4
330
1F
100
AcDbEntity
  8
0
100
AcDbLine
 10
28.28744119778378
 20
69.42931789027311
 30
0.0
 11
28.36814790830537
 21
69.51002460079471
 31
0.0
  0
LINE
  5
5B5
330
1F
100
AcDbEntity
  8
0
100
AcDbLine
 10
28.2799458659032
 20
69.4293178902731
 30
0.0
 11
28.3606525764248
 21
69.51002460079471
 31
0.0
  0
LINE
  5
5B6
330
1F
100
AcDbEntity
  8
0
100
AcDbLine
 10
28.27245053402263
 20
69.42931789027311
 30
0.0
 11
28.35315724454422
 21
69.51002460079471
 31
0.0
  0
LINE
  5
5B7
330
1F
100
AcDbEntity
  8
0
100
AcDbLine
 10
28.26495520214205
 20
69.42931789027311
 30
0.0
 11
28.34566191266365
 21
69.51002460079471
 31
0.0
  0
LINE
  5
5B8
330
1F
100
AcDbEntity
  8
0
100
AcDbLine
 10
28.25745987026147
 20
69.42931789027311
 30
0.0
 11
28.33816658078307
 21
69.51002460079471
 31
0.0
  0
LINE
  5
5B9
330
1F
100
AcDbEntity
  8
0
100
AcDbLine
 10
28.24996453838089
 20
69.42931789027311
 30
0.0
 11
28.3306712489025
 21
69.51002460079471
 31
0.0
  0
LINE
  5
5BA
330
1F
100
AcDbEntity
  8
0
100
AcDbLine
 10
28.24246920650031
 20
69.4293178902731
 30
0.0
 11
28.32317591702192
 21
69.51002460079471
 31
0.0
  0
LINE
  5
5BB
330
1F
100
AcDbEntity
  8
0
100
AcDbLine
 10
28.23497387461974
 20
69.42931789027311
 30
0.0
 11
28.31568058514134
 21
69.51002460079471
 31
0.0
  0
LINE
  5
5BC
330
1F
100
AcDbEntity
  8
0
100
AcDbLine
 10
28.22747854273916
 20
69.42931789027311
 30
0.0
 11
28.30818525326077
 21
69.51002460079471
 31
0.0
  0
LINE
  5
5BD
330
1F
100
AcDbEntity
  8
0
100
AcDbLine
 10
28.21998321085859
 20
69.42931789027311
 30
0.0
 11
28.30068992138019
 21
69.51002460079471
 31
0.0
  0
LINE
  5
5BE
330
1F
100
AcDbEntity
  8
0
100
AcDbLine
 10
28.21248787897801
 20
69.42931789027311
 30
0.0
 11
28.29319458949961
 21
69.51002460079471
 31
0.0
  0
LINE
  5
5BF
330
1F
100
AcDbEntity
  8
0
100
AcDbLine
 10
28.20499254709743
 20
69.4293178902731
 30
0.0
 11
28.28569925761903
 21
69.51002460079471
 31
0.0
  0
LINE
  5
5C0
330
1F
100
AcDbEntity
  8
0
100
AcDbLine
 10
28.19749721521686
 20
69.42931789027311
 30
0.0
 11
28.27820392573845
 21
69.51002460079471
 31
0.0
  0
LINE
  5
5C1
330
1F
100
AcDbEntity
  8
0
100
AcDbLine
 10
28.19000188333628
 20
69.42931789027311
 30
0.0
 11
28.27070859385788
 21
69.51002460079471
 31
0.0
  0
LINE
  5
5C2
330
1F
100
AcDbEntity
  8
0
100
AcDbLine
 10
28.18250655145571
 20
69.42931789027311
 30
0.0
 11
28.2632132619773
 21
69.51002460079471
 31
0.0
  0
LINE
  5
5C3
330
1F
100
AcDbEntity
  8
0
100
AcDbLine
 10
28.17501121957513
 20
69.42931789027311
 30
0.0
 11
28.25571793009673
 21
69.51002460079471
 31
0.0
  0
LINE
  5
5C4
330
1F
100
AcDbEntity
  8
0
100
AcDbLine
 10
28.16751588769456
 20
69.42931789027311
 30
0.0
 11
28.24822259821615
 21
69.51002460079471
 31
0.0
  0
LINE
  5
5C5
330
1F
100
AcDbEntity
  8
0
100
AcDbLine
 10
28.16002055581397
 20
69.42931789027311
 30
0.0
 11
28.24072726633557
 21
69.51002460079471
 31
0.0
  0
LINE
  5
5C6
330
1F
100
AcDbEntity
  8
0
100
AcDbLine
 10
28.15252522393339
 20
69.42931789027311
 30
0.0
 11
28.233231934455
 21
69.51002460079471
 31
0.0
  0
LINE
  5
5C7
330
1F
100
AcDbEntity
  8
0
100
AcDbLine
 10
28.14502989205282
 20
69.42931789027311
 30
0.0
 11
28.22573660257441
 21
69.51002460079471
 31
0.0
  0
LINE
  5
5C8
330
1F
100
AcDbEntity
  8
0
100
AcDbLine
 10
28.13753456017224
 20
69.42931789027311
 30
0.0
 11
28.21824127069385
 21
69.51002460079471
 31
0.0
  0
LINE
  5
5C9
330
1F
100
AcDbEntity
  8
0
100
AcDbLine
 10
28.13003922829167
 20
69.42931789027311
 30
0.0
 11
28.21074593881326
 21
69.51002460079471
 31
0.0
  0
LINE
  5
5CA
330
1F
100
AcDbEntity
  8
0
100
AcDbLine
 10
28.12254389641109
 20
69.42931789027311
 30
0.0
 11
28.20325060693268
 21
69.51002460079471
 31
0.0
  0
LINE
  5
5CB
330
1F
100
AcDbEntity
  8
0
100
AcDbLine
 10
28.11504856453051
 20
69.4293178902731
 30
0.0
 11
28.19575527505211
 21
69.51002460079471
 31
0.0
  0
LINE
  5
5CC
330
1F
100
AcDbEntity
  8
0
100
AcDbLine
 10
28.10755323264994
 20
69.42931789027311
 30
0.0
 11
28.18825994317153
 21
69.51002460079471
 31
0.0
  0
LINE
  5
5CD
330
1F
100
AcDbEntity
  8
0
100
AcDbLine
 10
28.10005790076936
 20
69.42931789027311
 30
0.0
 11
28.18076461129096
 21
69.51002460079471
 31
0.0
  0
LINE
  5
5CE
330
1F
100
AcDbEntity
  8
0
100
AcDbLine
 10
28.09256256888878
 20
69.42931789027311
 30
0.0
 11
28.17326927941038
 21
69.51002460079471
 31
0.0
  0
LINE
  5
5CF
330
1F
100
AcDbEntity
  8
0
100
AcDbLine
 10
28.0850672370082
 20
69.42931789027311
 30
0.0
 11
28.16577394752981
 21
69.51002460079471
 31
0.0
  0
LINE
  5
5D0
330
1F
100
AcDbEntity
  8
0
100
AcDbLine
 10
28.07757190512762
 20
69.4293178902731
 30
0.0
 11
28.15827861564923
 21
69.51002460079471
 31
0.0
  0
LINE
  5
5D1
330
1F
100
AcDbEntity
  8
0
100
AcDbLine
 10
28.07007657324706
 20
69.42931789027313
 30
0.0
 11
28.15078328376865
 21
69.51002460079471
 31
0.0
  0
LINE
  5
5D2
330
1F
100
AcDbEntity
  8
0
100
AcDbLine
 10
28.06258124136648
 20
69.42931789027311
 30
0.0
 11
28.14328795188808
 21
69.51002460079471
 31
0.0
  0
LINE
  5
5D3
330
1F
100
AcDbEntity
  8
0
100
AcDbLine
 10
28.0550859094859
 20
69.42931789027311
 30
0.0
 11
28.1357926200075
 21
69.51002460079471
 31
0.0
  0
LINE
  5
5D4
330
1F
100
AcDbEntity
  8
0
100
AcDbLine
 10
28.04759057760532
 20
69.42931789027311
 30
0.0
 11
28.12829728812692
 21
69.51002460079471
 31
0.0
  0
LINE
  5
5D5
330
1F
100
AcDbEntity
  8
0
100
AcDbLine
 10
28.04009524572474
 20
69.4293178902731
 30
0.0
 11
28.12080195624634
 21
69.51002460079471
 31
0.0
  0
LINE
  5
5D6
330
1F
100
AcDbEntity
  8
0
100
AcDbLine
 10
28.03259991384417
 20
69.42931789027311
 30
0.0
 11
28.11330662436576
 21
69.51002460079471
 31
0.0
  0
LINE
  5
5D7
330
1F
100
AcDbEntity
  8
0
100
AcDbLine
 10
28.02510458196359
 20
69.42931789027311
 30
0.0
 11
28.10581129248519
 21
69.51002460079471
 31
0.0
  0
LINE
  5
5D8
330
1F
100
AcDbEntity
  8
0
100
AcDbLine
 10
28.01760925008302
 20
69.42931789027311
 30
0.0
 11
28.09831596060461
 21
69.51002460079471
 31
0.0
  0
LINE
  5
5D9
330
1F
100
AcDbEntity
  8
0
100
AcDbLine
 10
28.01011391820244
 20
69.42931789027311
 30
0.0
 11
28.09082062872403
 21
69.51002460079471
 31
0.0
  0
LINE
  5
5DA
330
1F
100
AcDbEntity
  8
0
100
AcDbLine
 10
28.00261858632187
 20
69.42931789027311
 30
0.0
 11
28.08332529684346
 21
69.51002460079471
 31
0.0
  0
LINE
  5
5DB
330
1F
100
AcDbEntity
  8
0
100
AcDbLine
 10
27.99512325444128
 20
69.42931789027311
 30
0.0
 11
28.07582996496288
 21
69.51002460079471
 31
0.0
  0
LINE
  5
5DC
330
1F
100
AcDbEntity
  8
0
100
AcDbLine
 10
27.98762792256071
 20
69.42931789027311
 30
0.0
 11
28.06833463308231
 21
69.51002460079471
 31
0.0
  0
LINE
  5
5DD
330
1F
100
AcDbEntity
  8
0
100
AcDbLine
 10
27.98013259068013
 20
69.42931789027311
 30
0.0
 11
28.06083930120172
 21
69.51002460079471
 31
0.0
  0
LINE
  5
5DE
330
1F
100
AcDbEntity
  8
0
100
AcDbLine
 10
27.97263725879956
 20
69.42931789027311
 30
0.0
 11
28.05334396932114
 21
69.51002460079471
 31
0.0
  0
LINE
  5
5DF
330
1F
100
AcDbEntity
  8
0
100
AcDbLine
 10
27.96514192691898
 20
69.42931789027311
 30
0.0
 11
28.04584863744057
 21
69.51002460079471
 31
0.0
  0
LINE
  5
5E0
330
1F
100
AcDbEntity
  8
0
100
AcDbLine
 10
27.9576465950384
 20
69.42931789027311
 30
0.0
 11
28.03835330555999
 21
69.51002460079471
 31
0.0
  0
LINE
  5
5E1
330
1F
100
AcDbEntity
  8
0
100
AcDbLine
 10
27.95015126315782
 20
69.4293178902731
 30
0.0
 11
28.03085797367942
 21
69.51002460079471
 31
0.0
  0
LINE
  5
5E2
330
1F
100
AcDbEntity
  8
0
100
AcDbLine
 10
27.94486891640613
 20
69.43153087540199
 30
0.0
 11
28.02336264179884
 21
69.51002460079471
 31
0.0
  0
LINE
  5
5E3
330
1F
100
AcDbEntity
  8
0
100
AcDbLine
 10
27.94486891640612
 20
69.43902620728255
 30
0.0
 11
28.01586730991827
 21
69.51002460079471
 31
0.0
  0
LINE
  5
5E4
330
1F
100
AcDbEntity
  8
0
100
AcDbLine
 10
27.94486891640612
 20
69.44652153916314
 30
0.0
 11
28.00837197803769
 21
69.51002460079471
 31
0.0
  0
LINE
  5
5E5
330
1F
100
AcDbEntity
  8
0
100
AcDbLine
 10
27.94486891640612
 20
69.4540168710437
 30
0.0
 11
28.00087664615712
 21
69.51002460079471
 31
0.0
  0
LINE
  5
5E6
330
1F
100
AcDbEntity
  8
0
100
AcDbLine
 10
27.94486891640613
 20
69.4615122029243
 30
0.0
 11
27.99338131427653
 21
69.5100246007947
 31
0.0
  0
LINE
  5
5E7
330
1F
100
AcDbEntity
  8
0
100
AcDbLine
 10
27.94486891640613
 20
69.46900753480487
 30
0.0
 11
27.98588598239596
 21
69.51002460079471
 31
0.0
  0
LINE
  5
5E8
330
1F
100
AcDbEntity
  8
0
100
AcDbLine
 10
27.94486891640612
 20
69.47650286668544
 30
0.0
 11
27.97839065051539
 21
69.51002460079471
 31
0.0
  0
LINE
  5
5E9
330
1F
100
AcDbEntity
  8
0
100
AcDbLine
 10
27.94486891640612
 20
69.48399819856603
 30
0.0
 11
27.97089531863481
 21
69.51002460079471
 31
0.0
  0
LINE
  5
5EA
330
1F
100
AcDbEntity
  8
0
100
AcDbLine
 10
27.94486891640612
 20
69.49149353044659
 30
0.0
 11
27.96339998675423
 21
69.51002460079471
 31
0.0
  0
LINE
  5
5EB
330
1F
100
AcDbEntity
  8
0
100
AcDbLine
 10
27.94486891640612
 20
69.49898886232718
 30
0.0
 11
27.95590465487365
 21
69.51002460079471
 31
0.0
  0
LINE
  5
5EC
330
1F
100
AcDbEntity
  8
0
100
AcDbLine
 10
27.94486891640613
 20
69.50648419420776
 30
0.0
 11
27.94840932299307
 21
69.51002460079471
 31
0.0
  0
LINE
  5
5EE
330
1F
100
AcDbEntity
  8
0
100
AcDbLine
 10
29.39927084507466
 20
69.11703448025432
 30
0.0
 11
29.43517991305026
 21
69.1529435482299
 31
0.0
  0
LINE
  5
5EF
330
1F
100
AcDbEntity
  8
0
100
AcDbLine
 10
29.37825346315544
 20
69.10351243021566
 30
0.0
 11
29.44871821610576
 21
69.17397718316597
 31
0.0
  0
LINE
  5
5F0
330
1F
100
AcDbEntity
  8
0
100
AcDbLine
 10
29.36359930207814
 20
69.09635360101895
 30
0.0
 11
29.45592361937319
 21
69.18867791831399
 31
0.0
  0
LINE
  5
5F1
330
1F
100
AcDbEntity
  8
0
100
AcDbLine
 10
29.35136114368507
 20
69.09161077450645
 30
0.0
 11
29.46088945931682
 21
69.2011390901382
 31
0.0
  0
LINE
  5
5F2
330
1F
100
AcDbEntity
  8
0
100
AcDbLine
 10
29.34032566823707
 20
69.08807063093903
 30
0.0
 11
29.4640175210322
 21
69.21176248373415
 31
0.0
  0
LINE
  5
5F3
330
1F
100
AcDbEntity
  8
0
100
AcDbLine
 10
29.33042519000149
 20
69.08566548458401
 30
0.0
 11
29.46652152265407
 21
69.2217618172366
 31
0.0
  0
LINE
  5
5F4
330
1F
100
AcDbEntity
  8
0
100
AcDbLine
 10
29.32122862762857
 20
69.08396425409168
 30
0.0
 11
29.46828919454731
 21
69.23102482101042
 31
0.0
  0
LINE
  5
5F5
330
1F
100
AcDbEntity
  8
0
100
AcDbLine
 10
29.31247268558199
 20
69.08270364392568
 30
0.0
 11
29.4694142498442
 21
69.23964520818788
 31
0.0
  0
LINE
  5
5F6
330
1F
100
AcDbEntity
  8
0
100
AcDbLine
 10
29.30433670555097
 20
69.08206299577523
 30
0.0
 11
29.47018743026488
 21
69.24791372048914
 31
0.0
  0
LINE
  5
5F7
330
1F
100
AcDbEntity
  8
0
100
AcDbLine
 10
29.29646594488669
 20
69.08168756699153
 30
0.0
 11
29.47048208001748
 21
69.25570370212232
 31
0.0
  0
LINE
  5
5F8
330
1F
100
AcDbEntity
  8
0
100
AcDbLine
 10
29.28880200297189
 20
69.08151895695731
 30
0.0
 11
29.47046645883294
 21
69.26318341281835
 31
0.0
  0
LINE
  5
5F9
330
1F
100
AcDbEntity
  8
0
100
AcDbLine
 10
29.28130667108767
 20
69.08151895695366
 30
0.0
 11
29.47022783255099
 21
69.27044011841699
 31
0.0
  0
LINE
  5
5FA
330
1F
100
AcDbEntity
  8
0
100
AcDbLine
 10
29.27381133920345
 20
69.08151895695002
 30
0.0
 11
29.46956056570519
 21
69.27726818345177
 31
0.0
  0
LINE
  5
5FB
330
1F
100
AcDbEntity
  8
0
100
AcDbLine
 10
29.26631600731923
 20
69.08151895694638
 30
0.0
 11
29.4688932988594
 21
69.28409624848655
 31
0.0
  0
LINE
  5
5FC
330
1F
100
AcDbEntity
  8
0
100
AcDbLine
 10
29.25882067543503
 20
69.08151895694274
 30
0.0
 11
29.46773981183976
 21
69.29043809334748
 31
0.0
  0
LINE
  5
5FD
330
1F
100
AcDbEntity
  8
0
100
AcDbLine
 10
29.25132534355082
 20
69.08151895693912
 30
0.0
 11
29.4665158639429
 21
69.29670947733119
 31
0.0
  0
LINE
  5
5FE
330
1F
100
AcDbEntity
  8
0
100
AcDbLine
 10
29.2438300116666
 20
69.08151895693547
 30
0.0
 11
29.46518294333139
 21
69.30287188860027
 31
0.0
  0
LINE
  5
5FF
330
1F
100
AcDbEntity
  8
0
100
AcDbLine
 10
29.23633467978239
 20
69.08151895693184
 30
0.0
 11
29.46346966589412
 21
69.30865394304357
 31
0.0
  0
LINE
  5
600
330
1F
100
AcDbEntity
  8
0
100
AcDbLine
 10
29.22883934789818
 20
69.0815189569282
 30
0.0
 11
29.46175638845684
 21
69.31443599748687
 31
0.0
  0
LINE
  5
601
330
1F
100
AcDbEntity
  8
0
100
AcDbLine
 10
29.22134401601396
 20
69.08151895692457
 30
0.0
 11
29.45986047617445
 21
69.32003541708505
 31
0.0
  0
LINE
  5
602
330
1F
100
AcDbEntity
  8
0
100
AcDbLine
 10
29.21384868412974
 20
69.08151895692093
 30
0.0
 11
29.33267997007738
 21
69.20035024286857
 31
0.0
  0
LINE
  5
603
330
1F
100
AcDbEntity
  8
0
100
AcDbLine
 10
29.35120306488584
 20
69.21887333767702
 30
0.0
 11
29.45770615944864
 21
69.32537643223982
 31
0.0
  0
LINE
  5
604
330
1F
100
AcDbEntity
  8
0
100
AcDbLine
 10
29.20635335224554
 20
69.0815189569173
 30
0.0
 11
29.31762621704842
 21
69.19279182172018
 31
0.0
  0
LINE
  5
605
330
1F
100
AcDbEntity
  8
0
100
AcDbLine
 10
29.35956543697902
 20
69.23473104165078
 30
0.0
 11
29.45555184272281
 21
69.33071744739458
 31
0.0
  0
LINE
  5
606
330
1F
100
AcDbEntity
  8
0
100
AcDbLine
 10
29.19885802036133
 20
69.08151895691367
 30
0.0
 11
29.30711882654656
 21
69.1897797630989
 31
0.0
  0
LINE
  5
607
330
1F
100
AcDbEntity
  8
0
100
AcDbLine
 10
29.3625138983545
 20
69.24517483490683
 30
0.0
 11
29.45320515636578
 21
69.33586609291811
 31
0.0
  0
LINE
  5
608
330
1F
100
AcDbEntity
  8
0
100
AcDbLine
 10
29.19136268847711
 20
69.08151895691002
 30
0.0
 11
29.29842170483191
 21
69.18857797326483
 31
0.0
  0
LINE
  5
609
330
1F
100
AcDbEntity
  8
0
100
AcDbLine
 10
29.36382411096537
 20
69.25398037939829
 30
0.0
 11
29.45064425780411
 21
69.34080052623702
 31
0.0
  0
LINE
  5
60A
330
1F
100
AcDbEntity
  8
0
100
AcDbLine
 10
29.18386735659289
 20
69.08151895690638
 30
0.0
 11
29.29051435664581
 21
69.1881659569593
 31
0.0
  0
LINE
  5
60B
330
1F
100
AcDbEntity
  8
0
100
AcDbLine
 10
29.36382527148972
 20
69.26147687180321
 30
0.0
 11
29.44808335924245
 21
69.34573495955594
 31
0.0
  0
LINE
  5
60C
330
1F
100
AcDbEntity
  8
0
100
AcDbLine
 10
29.17637202470868
 20
69.08151895690276
 30
0.0
 11
29.28301902476523
 21
69.1881659569593
 31
0.0
  0
LINE
  5
60D
330
1F
100
AcDbEntity
  8
0
100
AcDbLine
 10
29.36325653287855
 20
69.26840346507262
 30
0.0
 11
29.4454398186064
 21
69.35058675080046
 31
0.0
  0
LINE
  5
60E
330
1F
100
AcDbEntity
  8
0
100
AcDbLine
 10
29.16887669282446
 20
69.0815189568991
 30
0.0
 11
29.27552369288466
 21
69.1881659569593
 31
0.0
  0
LINE
  5
60F
330
1F
100
AcDbEntity
  8
0
100
AcDbLine
 10
29.36226155223525
 20
69.27490381630989
 30
0.0
 11
29.44268515913627
 21
69.35532742321092
 31
0.0
  0
LINE
  5
610
330
1F
100
AcDbEntity
  8
0
100
AcDbLine
 10
29.16138136094025
 20
69.08151895689548
 30
0.0
 11
29.26802836100408
 21
69.1881659569593
 31
0.0
  0
LINE
  5
611
330
1F
100
AcDbEntity
  8
0
100
AcDbLine
 10
29.36052444706507
 20
69.28066204302029
 30
0.0
 11
29.43993049966616
 21
69.36006809562139
 31
0.0
  0
LINE
  5
612
330
1F
100
AcDbEntity
  8
0
100
AcDbLine
 10
29.15388602905605
 20
69.08151895689184
 30
0.0
 11
29.26053302912349
 21
69.1881659569593
 31
0.0
  0
LINE
  5
613
330
1F
100
AcDbEntity
  8
0
100
AcDbLine
 10
29.35863228339629
 20
69.28626521123208
 30
0.0
 11
29.43717584019605
 21
69.36480876803185
 31
0.0
  0
LINE
  5
614
330
1F
100
AcDbEntity
  8
0
100
AcDbLine
 10
29.14639069717184
 20
69.08151895688822
 30
0.0
 11
29.25303769724291
 21
69.1881659569593
 31
0.0
  0
LINE
  5
615
330
1F
100
AcDbEntity
  8
0
100
AcDbLine
 10
29.35618469858771
 20
69.29131295830409
 30
0.0
 11
29.43442118072593
 21
69.36954944044231
 31
0.0
  0
LINE
  5
616
330
1F
100
AcDbEntity
  8
0
100
AcDbLine
 10
29.13889536528761
 20
69.08151895688457
 30
0.0
 11
29.24554236536234
 21
69.1881659569593
 31
0.0
  0
LINE
  5
617
330
1F
100
AcDbEntity
  8
0
100
AcDbLine
 10
29.3536533807493
 20
69.29627697234625
 30
0.0
 11
29.43166652125582
 21
69.37429011285278
 31
0.0
  0
LINE
  5
618
330
1F
100
AcDbEntity
  8
0
100
AcDbLine
 10
29.1314000334034
 20
69.08151895688093
 30
0.0
 11
29.23804703348176
 21
69.1881659569593
 31
0.0
  0
LINE
  5
619
330
1F
100
AcDbEntity
  8
0
100
AcDbLine
 10
29.35089872138057
 20
69.30101764485809
 30
0.0
 11
29.4289118617857
 21
69.37903078526323
 31
0.0
  0
LINE
  5
61A
330
1F
100
AcDbEntity
  8
0
100
AcDbLine
 10
29.12390470151919
 20
69.0815189568773
 30
0.0
 11
29.23055170160119
 21
69.1881659569593
 31
0.0
  0
LINE
  5
61B
330
1F
100
AcDbEntity
  8
0
100
AcDbLine
 10
29.34814406201183
 20
69.30575831736994
 30
0.0
 11
29.4261572023156
 21
69.3837714576737
 31
0.0
  0
LINE
  5
61C
330
1F
100
AcDbEntity
  8
0
100
AcDbLine
 10
29.11640936963498
 20
69.08151895687367
 30
0.0
 11
29.22305636972062
 21
69.1881659569593
 31
0.0
  0
LINE
  5
61D
330
1F
100
AcDbEntity
  8
0
100
AcDbLine
 10
29.34538940264309
 20
69.31049898988178
 30
0.0
 11
29.42340254284548
 21
69.38851213008417
 31
0.0
  0
LINE
  5
61E
330
1F
100
AcDbEntity
  8
0
100
AcDbLine
 10
29.10891403775076
 20
69.08151895687003
 30
0.0
 11
29.21556103784004
 21
69.1881659569593
 31
0.0
  0
LINE
  5
61F
330
1F
100
AcDbEntity
  8
0
100
AcDbLine
 10
29.34263474327437
 20
69.31523966239362
 30
0.0
 11
29.42064788337536
 21
69.39325280249463
 31
0.0
  0
LINE
  5
620
330
1F
100
AcDbEntity
  8
0
100
AcDbLine
 10
29.10141870586655
 20
69.08151895686639
 30
0.0
 11
29.20806570595946
 21
69.1881659569593
 31
0.0
  0
LINE
  5
621
330
1F
100
AcDbEntity
  8
0
100
AcDbLine
 10
29.33988008390563
 20
69.31998033490547
 30
0.0
 11
29.41789322390525
 21
69.39799347490508
 31
0.0
  0
LINE
  5
622
330
1F
100
AcDbEntity
  8
0
100
AcDbLine
 10
29.09392337398234
 20
69.08151895686275
 30
0.0
 11
29.20057037407888
 21
69.1881659569593
 31
0.0
  0
LINE
  5
623
330
1F
100
AcDbEntity
  8
0
100
AcDbLine
 10
29.3371254245369
 20
69.32472100741731
 30
0.0
 11
29.41513856443513
 21
69.40273414731554
 31
0.0
  0
LINE
  5
624
330
1F
100
AcDbEntity
  8
0
100
AcDbLine
 10
29.08642804209812
 20
69.08151895685911
 30
0.0
 11
29.19307504219831
 21
69.1881659569593
 31
0.0
  0
LINE
  5
625
330
1F
100
AcDbEntity
  8
0
100
AcDbLine
 10
29.33437076516816
 20
69.32946167992915
 30
0.0
 11
29.41238390496502
 21
69.407474819726
 31
0.0
  0
LINE
  5
626
330
1F
100
AcDbEntity
  8
0
100
AcDbLine
 10
29.07893271021391
 20
69.08151895685548
 30
0.0
 11
29.18557971031773
 21
69.1881659569593
 31
0.0
  0
LINE
  5
627
330
1F
100
AcDbEntity
  8
0
100
AcDbLine
 10
29.33161610579943
 20
69.334202352441
 30
0.0
 11
29.4096292454949
 21
69.41221549213647
 31
0.0
  0
LINE
  5
628
330
1F
100
AcDbEntity
  8
0
100
AcDbLine
 10
29.0714373783297
 20
69.08151895685185
 30
0.0
 11
29.17808437843714
 21
69.18816595695928
 31
0.0
  0
LINE
  5
629
330
1F
100
AcDbEntity
  8
0
100
AcDbLine
 10
29.3288614464307
 20
69.33894302495284
 30
0.0
 11
29.4068745860248
 21
69.41695616454693
 31
0.0
  0
LINE
  5
62A
330
1F
100
AcDbEntity
  8
0
100
AcDbLine
 10
29.06394204644548
 20
69.0815189568482
 30
0.0
 11
29.17058904655658
 21
69.1881659569593
 31
0.0
  0
LINE
  5
62B
330
1F
100
AcDbEntity
  8
0
100
AcDbLine
 10
29.32610678706196
 20
69.34368369746468
 30
0.0
 11
29.40411992655468
 21
69.4216968369574
 31
0.0
  0
LINE
  5
62C
330
1F
100
AcDbEntity
  8
0
100
AcDbLine
 10
29.05644671456126
 20
69.08151895684456
 30
0.0
 11
29.163093714676
 21
69.1881659569593
 31
0.0
  0
LINE
  5
62D
330
1F
100
AcDbEntity
  8
0
100
AcDbLine
 10
29.32335212769323
 20
69.34842436997653
 30
0.0
 11
29.40136526708456
 21
69.42643750936786
 31
0.0
  0
LINE
  5
62E
330
1F
100
AcDbEntity
  8
0
100
AcDbLine
 10
29.04895138267706
 20
69.08151895684092
 30
0.0
 11
29.15559838279542
 21
69.1881659569593
 31
0.0
  0
LINE
  5
62F
330
1F
100
AcDbEntity
  8
0
100
AcDbLine
 10
29.32059746832449
 20
69.35316504248837
 30
0.0
 11
29.39861060761444
 21
69.43117818177832
 31
0.0
  0
LINE
  5
630
330
1F
100
AcDbEntity
  8
0
100
AcDbLine
 10
29.04145605079285
 20
69.0815189568373
 30
0.0
 11
29.14810305091485
 21
69.1881659569593
 31
0.0
  0
LINE
  5
631
330
1F
100
AcDbEntity
  8
0
100
AcDbLine
 10
29.31784280895577
 20
69.35790571500021
 30
0.0
 11
29.39585594814433
 21
69.43591885418878
 31
0.0
  0
LINE
  5
632
330
1F
100
AcDbEntity
  8
0
100
AcDbLine
 10
29.03396071890863
 20
69.08151895683366
 30
0.0
 11
29.14060771903427
 21
69.1881659569593
 31
0.0
  0
LINE
  5
633
330
1F
100
AcDbEntity
  8
0
100
AcDbLine
 10
29.31508814958703
 20
69.36264638751206
 30
0.0
 11
29.39310128867421
 21
69.44065952659923
 31
0.0
  0
LINE
  5
634
330
1F
100
AcDbEntity
  8
0
100
AcDbLine
 10
29.02646538702442
 20
69.08151895683002
 30
0.0
 11
29.13311238715369
 21
69.1881659569593
 31
0.0
  0
LINE
  5
635
330
1F
100
AcDbEntity
  8
0
100
AcDbLine
 10
29.3123334902183
 20
69.3673870600239
 30
0.0
 11
29.3903466292041
 21
69.4454001990097
 31
0.0
  0
LINE
  5
636
330
1F
100
AcDbEntity
  8
0
100
AcDbLine
 10
29.0189700551402
 20
69.08151895682639
 30
0.0
 11
29.12561705527311
 21
69.1881659569593
 31
0.0
  0
LINE
  5
637
330
1F
100
AcDbEntity
  8
0
100
AcDbLine
 10
29.30957883084956
 20
69.37212773253574
 30
0.0
 11
29.38759196973399
 21
69.45014087142017
 31
0.0
  0
LINE
  5
638
330
1F
100
AcDbEntity
  8
0
100
AcDbLine
 10
29.01147472325599
 20
69.08151895682275
 30
0.0
 11
29.11812172339254
 21
69.1881659569593
 31
0.0
  0
LINE
  5
639
330
1F
100
AcDbEntity
  8
0
100
AcDbLine
 10
29.30682417148083
 20
69.37686840504759
 30
0.0
 11
29.38483731026387
 21
69.45488154383062
 31
0.0
  0
LINE
  5
63A
330
1F
100
AcDbEntity
  8
0
100
AcDbLine
 10
29.00397939137178
 20
69.08151895681911
 30
0.0
 11
29.11062639151196
 21
69.1881659569593
 31
0.0
  0
LINE
  5
63B
330
1F
100
AcDbEntity
  8
0
100
AcDbLine
 10
29.3040695121121
 20
69.38160907755943
 30
0.0
 11
29.38208265079376
 21
69.45962221624109
 31
0.0
  0
LINE
  5
63C
330
1F
100
AcDbEntity
  8
0
100
AcDbLine
 10
28.99648405948757
 20
69.08151895681547
 30
0.0
 11
29.10313105963139
 21
69.1881659569593
 31
0.0
  0
LINE
  5
63D
330
1F
100
AcDbEntity
  8
0
100
AcDbLine
 10
29.30131485274337
 20
69.38634975007128
 30
0.0
 11
29.37932799132364
 21
69.46436288865155
 31
0.0
  0
LINE
  5
63E
330
1F
100
AcDbEntity
  8
0
100
AcDbLine
 10
28.98898872760335
 20
69.08151895681183
 30
0.0
 11
29.09563572775081
 21
69.18816595695931
 31
0.0
  0
LINE
  5
63F
330
1F
100
AcDbEntity
  8
0
100
AcDbLine
 10
29.29856019337463
 20
69.39109042258312
 30
0.0
 11
29.37657333185353
 21
69.46910356106201
 31
0.0
  0
LINE
  5
640
330
1F
100
AcDbEntity
  8
0
100
AcDbLine
 10
28.98149339571914
 20
69.08151895680821
 30
0.0
 11
29.08814039587023
 21
69.1881659569593
 31
0.0
  0
LINE
  5
641
330
1F
100
AcDbEntity
  8
0
100
AcDbLine
 10
29.2958055340059
 20
69.39583109509496
 30
0.0
 11
29.37381867238341
 21
69.47384423347248
 31
0.0
  0
LINE
  5
642
330
1F
100
AcDbEntity
  8
0
100
AcDbLine
 10
28.97399806383492
 20
69.08151895680456
 30
0.0
 11
29.08064506398965
 21
69.1881659569593
 31
0.0
  0
LINE
  5
643
330
1F
100
AcDbEntity
  8
0
100
AcDbLine
 10
29.29305087463716
 20
69.4005717676068
 30
0.0
 11
29.37106401291329
 21
69.47858490588294
 31
0.0
  0
LINE
  5
644
330
1F
100
AcDbEntity
  8
0
100
AcDbLine
 10
28.96650273195072
 20
69.08151895680093
 30
0.0
 11
29.07314973210907
 21
69.1881659569593
 31
0.0
  0
LINE
  5
645
330
1F
100
AcDbEntity
  8
0
100
AcDbLine
 10
29.29029621526844
 20
69.40531244011865
 30
0.0
 11
29.36830935344318
 21
69.4833255782934
 31
0.0
  0
LINE
  5
646
330
1F
100
AcDbEntity
  8
0
100
AcDbLine
 10
28.9590074000665
 20
69.0815189567973
 30
0.0
 11
29.0656544002285
 21
69.1881659569593
 31
0.0
  0
LINE
  5
647
330
1F
100
AcDbEntity
  8
0
100
AcDbLine
 10
29.2875415558997
 20
69.4100531126305
 30
0.0
 11
29.36555469397306
 21
69.48806625070385
 31
0.0
  0
LINE
  5
648
330
1F
100
AcDbEntity
  8
0
100
AcDbLine
 10
28.95151206818229
 20
69.08151895679366
 30
0.0
 11
29.05815906834792
 21
69.1881659569593
 31
0.0
  0
LINE
  5
649
330
1F
100
AcDbEntity
  8
0
100
AcDbLine
 10
29.28478689653097
 20
69.41479378514234
 30
0.0
 11
29.36280003450296
 21
69.49280692311433
 31
0.0
  0
LINE
  5
64A
330
1F
100
AcDbEntity
  8
0
100
AcDbLine
 10
28.94401673629808
 20
69.08151895679002
 30
0.0
 11
29.05066373646734
 21
69.18816595695928
 31
0.0
  0
LINE
  5
64B
330
1F
100
AcDbEntity
  8
0
100
AcDbLine
 10
29.28203223716223
 20
69.41953445765418
 30
0.0
 11
29.36004537503284
 21
69.4975475955248
 31
0.0
  0
LINE
  5
64C
330
1F
100
AcDbEntity
  8
0
100
AcDbLine
 10
28.93652140441386
 20
69.08151895678638
 30
0.0
 11
29.04316840458677
 21
69.1881659569593
 31
0.0
  0
LINE
  5
64D
330
1F
100
AcDbEntity
  8
0
100
AcDbLine
 10
29.2792775777935
 20
69.42427513016602
 30
0.0
 11
29.35729071556272
 21
69.50228826793526
 31
0.0
  0
LINE
  5
64E
330
1F
100
AcDbEntity
  8
0
100
AcDbLine
 10
28.92902607252964
 20
69.08151895678274
 30
0.0
 11
29.0356730727062
 21
69.1881659569593
 31
0.0
  0
LINE
  5
64F
330
1F
100
AcDbEntity
  8
0
100
AcDbLine
 10
29.27652291842477
 20
69.42901580267787
 30
0.0
 11
29.35453605609261
 21
69.5070289403457
 31
0.0
  0
LINE
  5
650
330
1F
100
AcDbEntity
  8
0
100
AcDbLine
 10
28.92153074064543
 20
69.0815189567791
 30
0.0
 11
29.02817774082562
 21
69.1881659569593
 31
0.0
  0
LINE
  5
651
330
1F
100
AcDbEntity
  8
0
100
AcDbLine
 10
29.27376825905603
 20
69.43375647518971
 30
0.0
 11
29.35178139662249
 21
69.51176961275617
 31
0.0
  0
LINE
  5
652
330
1F
100
AcDbEntity
  8
0
100
AcDbLine
 10
28.91403540876123
 20
69.08151895677548
 30
0.0
 11
29.02068240894504
 21
69.1881659569593
 31
0.0
  0
LINE
  5
653
330
1F
100
AcDbEntity
  8
0
100
AcDbLine
 10
29.2710135996873
 20
69.43849714770155
 30
0.0
 11
29.34902673715237
 21
69.51651028516663
 31
0.0
  0
LINE
  5
654
330
1F
100
AcDbEntity
  8
0
100
AcDbLine
 10
28.90654007687701
 20
69.08151895677184
 30
0.0
 11
29.01318707706447
 21
69.1881659569593
 31
0.0
  0
LINE
  5
655
330
1F
100
AcDbEntity
  8
0
100
AcDbLine
 10
29.26825894031857
 20
69.4432378202134
 30
0.0
 11
29.34627207768226
 21
69.5212509575771
 31
0.0
  0
LINE
  5
656
330
1F
100
AcDbEntity
  8
0
100
AcDbLine
 10
28.8990447449928
 20
69.0815189567682
 30
0.0
 11
29.00569174518388
 21
69.1881659569593
 31
0.0
  0
LINE
  5
657
330
1F
100
AcDbEntity
  8
0
100
AcDbLine
 10
29.26550428094983
 20
69.44797849272524
 30
0.0
 11
29.34351741821214
 21
69.52599162998756
 31
0.0
  0
LINE
  5
658
330
1F
100
AcDbEntity
  8
0
100
AcDbLine
 10
28.89154941310858
 20
69.08151895676457
 30
0.0
 11
28.9981964133033
 21
69.1881659569593
 31
0.0
  0
LINE
  5
659
330
1F
100
AcDbEntity
  8
0
100
AcDbLine
 10
29.2627496215811
 20
69.45271916523708
 30
0.0
 11
29.34076275874204
 21
69.53073230239802
 31
0.0
  0
LINE
  5
65A
330
1F
100
AcDbEntity
  8
0
100
AcDbLine
 10
28.88405408122437
 20
69.08151895676093
 30
0.0
 11
28.99070108142273
 21
69.1881659569593
 31
0.0
  0
LINE
  5
65B
330
1F
100
AcDbEntity
  8
0
100
AcDbLine
 10
29.25999496221237
 20
69.45745983774894
 30
0.0
 11
29.33800809927192
 21
69.53547297480848
 31
0.0
  0
LINE
  5
65C
330
1F
100
AcDbEntity
  8
0
100
AcDbLine
 10
28.87655874934015
 20
69.0815189567573
 30
0.0
 11
28.98320574954215
 21
69.1881659569593
 31
0.0
  0
LINE
  5
65D
330
1F
100
AcDbEntity
  8
0
100
AcDbLine
 10
29.25724030284364
 20
69.46220051026077
 30
0.0
 11
29.33525343980181
 21
69.54021364721895
 31
0.0
  0
LINE
  5
65E
330
1F
100
AcDbEntity
  8
0
100
AcDbLine
 10
28.86906341745594
 20
69.08151895675365
 30
0.0
 11
28.97571041766158
 21
69.1881659569593
 31
0.0
  0
LINE
  5
65F
330
1F
100
AcDbEntity
  8
0
100
AcDbLine
 10
29.2544856434749
 20
69.46694118277262
 30
0.0
 11
29.33249878033169
 21
69.54495431962941
 31
0.0
  0
LINE
  5
660
330
1F
100
AcDbEntity
  8
0
100
AcDbLine
 10
28.86156808557174
 20
69.08151895675003
 30
0.0
 11
28.96821508578101
 21
69.18816595695931
 31
0.0
  0
LINE
  5
661
330
1F
100
AcDbEntity
  8
0
100
AcDbLine
 10
29.25173098410617
 20
69.47168185528446
 30
0.0
 11
29.32974412086157
 21
69.54969499203986
 31
0.0
  0
LINE
  5
662
330
1F
100
AcDbEntity
  8
0
100
AcDbLine
 10
28.85407275368751
 20
69.08151895674638
 30
0.0
 11
28.96071975390043
 21
69.1881659569593
 31
0.0
  0
LINE
  5
663
330
1F
100
AcDbEntity
  8
0
100
AcDbLine
 10
29.24897632473744
 20
69.47642252779632
 30
0.0
 11
29.32698946139146
 21
69.55443566445032
 31
0.0
  0
LINE
  5
664
330
1F
100
AcDbEntity
  8
0
100
AcDbLine
 10
28.84657742180331
 20
69.08151895674276
 30
0.0
 11
28.95322442201985
 21
69.1881659569593
 31
0.0
  0
LINE
  5
665
330
1F
100
AcDbEntity
  8
0
100
AcDbLine
 10
29.2462216653687
 20
69.48116320030815
 30
0.0
 11
29.32423480192135
 21
69.5591763368608
 31
0.0
  0
LINE
  5
666
330
1F
100
AcDbEntity
  8
0
100
AcDbLine
 10
28.83908208991909
 20
69.08151895673912
 30
0.0
 11
28.94572909013927
 21
69.1881659569593
 31
0.0
  0
LINE
  5
667
330
1F
100
AcDbEntity
  8
0
100
AcDbLine
 10
29.24346700599997
 20
69.48590387281999
 30
0.0
 11
29.32148014245124
 21
69.56391700927126
 31
0.0
  0
LINE
  5
668
330
1F
100
AcDbEntity
  8
0
100
AcDbLine
 10
28.83158675803488
 20
69.08151895673548
 30
0.0
 11
28.9382337582587
 21
69.1881659569593
 31
0.0
  0
LINE
  5
669
330
1F
100
AcDbEntity
  8
0
100
AcDbLine
 10
29.24071234663123
 20
69.49064454533183
 30
0.0
 11
29.31872548298112
 21
69.56865768168171
 31
0.0
  0
LINE
  5
66A
330
1F
100
AcDbEntity
  8
0
100
AcDbLine
 10
28.82409142615066
 20
69.08151895673184
 30
0.0
 11
28.93073842637811
 21
69.1881659569593
 31
0.0
  0
LINE
  5
66B
330
1F
100
AcDbEntity
  8
0
100
AcDbLine
 10
29.2379576872625
 20
69.49538521784368
 30
0.0
 11
29.315970823511
 21
69.57339835409218
 31
0.0
  0
LINE
  5
66C
330
1F
100
AcDbEntity
  8
0
100
AcDbLine
 10
28.81659609426644
 20
69.0815189567282
 30
0.0
 11
28.92324309449754
 21
69.1881659569593
 31
0.0
  0
LINE
  5
66D
330
1F
100
AcDbEntity
  8
0
100
AcDbLine
 10
29.23520302789377
 20
69.50012589035552
 30
0.0
 11
29.31321616404089
 21
69.57813902650264
 31
0.0
  0
LINE
  5
66E
330
1F
100
AcDbEntity
  8
0
100
AcDbLine
 10
28.80910076238224
 20
69.08151895672457
 30
0.0
 11
28.91574776261696
 21
69.1881659569593
 31
0.0
  0
LINE
  5
66F
330
1F
100
AcDbEntity
  8
0
100
AcDbLine
 10
29.23244836852503
 20
69.50486656286736
 30
0.0
 11
29.31046150457077
 21
69.5828796989131
 31
0.0
  0
LINE
  5
670
330
1F
100
AcDbEntity
  8
0
100
AcDbLine
 10
28.80160543049803
 20
69.08151895672094
 30
0.0
 11
28.90825243073639
 21
69.1881659569593
 31
0.0
  0
LINE
  5
671
330
1F
100
AcDbEntity
  8
0
100
AcDbLine
 10
29.2296937091563
 20
69.5096072353792
 30
0.0
 11
29.30770684510065
 21
69.58762037132357
 31
0.0
  0
LINE
  5
672
330
1F
100
AcDbEntity
  8
0
100
AcDbLine
 10
28.79411009861381
 20
69.08151895671729
 30
0.0
 11
28.90075709885581
 21
69.1881659569593
 31
0.0
  0
LINE
  5
673
330
1F
100
AcDbEntity
  8
0
100
AcDbLine
 10
29.22693904978756
 20
69.51434790789105
 30
0.0
 11
29.30495218563054
 21
69.59236104373403
 31
0.0
  0
LINE
  5
674
330
1F
100
AcDbEntity
  8
0
100
AcDbLine
 10
28.78661476672959
 20
69.08151895671365
 30
0.0
 11
28.89326176697523
 21
69.1881659569593
 31
0.0
  0
LINE
  5
675
330
1F
100
AcDbEntity
  8
0
100
AcDbLine
 10
29.22418439041884
 20
69.5190885804029
 30
0.0
 11
29.30219752616043
 21
69.5971017161445
 31
0.0
  0
LINE
  5
676
330
1F
100
AcDbEntity
  8
0
100
AcDbLine
 10
28.77911943484538
 20
69.08151895671001
 30
0.0
 11
28.88576643509466
 21
69.1881659569593
 31
0.0
  0
LINE
  5
677
330
1F
100
AcDbEntity
  8
0
100
AcDbLine
 10
29.2214297310501
 20
69.52382925291474
 30
0.0
 11
29.29944286669032
 21
69.60184238855496
 31
0.0
  0
LINE
  5
678
330
1F
100
AcDbEntity
  8
0
100
AcDbLine
 10
28.77162410296117
 20
69.08151895670639
 30
0.0
 11
28.87827110321408
 21
69.1881659569593
 31
0.0
  0
LINE
  5
679
330
1F
100
AcDbEntity
  8
0
100
AcDbLine
 10
29.21867507168137
 20
69.52856992542658
 30
0.0
 11
29.2966882072202
 21
69.60658306096542
 31
0.0
  0
LINE
  5
67A
330
1F
100
AcDbEntity
  8
0
100
AcDbLine
 10
28.76412877107695
 20
69.08151895670275
 30
0.0
 11
28.8707757713335
 21
69.1881659569593
 31
0.0
  0
LINE
  5
67B
330
1F
100
AcDbEntity
  8
0
100
AcDbLine
 10
29.21592041231263
 20
69.53331059793842
 30
0.0
 11
29.29393354775009
 21
69.61132373337588
 31
0.0
  0
LINE
  5
67C
330
1F
100
AcDbEntity
  8
0
100
AcDbLine
 10
28.75663343919275
 20
69.08151895669911
 30
0.0
 11
28.86328043945293
 21
69.1881659569593
 31
0.0
  0
LINE
  5
67D
330
1F
100
AcDbEntity
  8
0
100
AcDbLine
 10
29.21316575294389
 20
69.53805127045027
 30
0.0
 11
29.29117888827997
 21
69.61606440578633
 31
0.0
  0
LINE
  5
67E
330
1F
100
AcDbEntity
  8
0
100
AcDbLine
 10
28.74913810730853
 20
69.08151895669548
 30
0.0
 11
28.85578510757236
 21
69.1881659569593
 31
0.0
  0
LINE
  5
67F
330
1F
100
AcDbEntity
  8
0
100
AcDbLine
 10
29.21041109357517
 20
69.54279194296211
 30
0.0
 11
29.28842422880985
 21
69.6208050781968
 31
0.0
  0
LINE
  5
680
330
1F
100
AcDbEntity
  8
0
100
AcDbLine
 10
28.74164277542431
 20
69.08151895669184
 30
0.0
 11
28.84828977569178
 21
69.1881659569593
 31
0.0
  0
LINE
  5
681
330
1F
100
AcDbEntity
  8
0
100
AcDbLine
 10
29.20765643420643
 20
69.54753261547395
 30
0.0
 11
29.28566956933973
 21
69.62554575060726
 31
0.0
  0
LINE
  5
682
330
1F
100
AcDbEntity
  8
0
100
AcDbLine
 10
28.7341474435401
 20
69.0815189566882
 30
0.0
 11
28.84079444381121
 21
69.18816595695931
 31
0.0
  0
LINE
  5
683
330
1F
100
AcDbEntity
  8
0
100
AcDbLine
 10
29.2049017748377
 20
69.5522732879858
 30
0.0
 11
29.28291490986963
 21
69.63028642301774
 31
0.0
  0
LINE
  5
684
330
1F
100
AcDbEntity
  8
0
100
AcDbLine
 10
28.72665211165588
 20
69.08151895668456
 30
0.0
 11
28.83329911193061
 21
69.1881659569593
 31
0.0
  0
LINE
  5
685
330
1F
100
AcDbEntity
  8
0
100
AcDbLine
 10
29.20214711546897
 20
69.55701396049764
 30
0.0
 11
29.28016025039951
 21
69.63502709542819
 31
0.0
  0
LINE
  5
686
330
1F
100
AcDbEntity
  8
0
100
AcDbLine
 10
28.71915677977167
 20
69.08151895668092
 30
0.0
 11
28.82580378005004
 21
69.1881659569593
 31
0.0
  0
LINE
  5
687
330
1F
100
AcDbEntity
  8
0
100
AcDbLine
 10
29.19939245610023
 20
69.56175463300949
 30
0.0
 11
29.2774055909294
 21
69.63976776783865
 31
0.0
  0
LINE
  5
688
330
1F
100
AcDbEntity
  8
0
100
AcDbLine
 10
28.71166144788747
 20
69.0815189566773
 30
0.0
 11
28.81830844816946
 21
69.1881659569593
 31
0.0
  0
LINE
  5
689
330
1F
100
AcDbEntity
  8
0
100
AcDbLine
 10
29.1966377967315
 20
69.56649530552133
 30
0.0
 11
29.27465093145928
 21
69.64450844024911
 31
0.0
  0
LINE
  5
68A
330
1F
100
AcDbEntity
  8
0
100
AcDbLine
 10
28.70416611600325
 20
69.08151895667365
 30
0.0
 11
28.81081311628889
 21
69.1881659569593
 31
0.0
  0
LINE
  5
68B
330
1F
100
AcDbEntity
  8
0
100
AcDbLine
 10
29.19388313736277
 20
69.57123597803319
 30
0.0
 11
29.27189627198917
 21
69.64924911265959
 31
0.0
  0
LINE
  5
68C
330
1F
100
AcDbEntity
  8
0
100
AcDbLine
 10
28.69667078411904
 20
69.08151895667002
 30
0.0
 11
28.80331778440831
 21
69.1881659569593
 31
0.0
  0
LINE
  5
68D
330
1F
100
AcDbEntity
  8
0
100
AcDbLine
 10
29.19112847799404
 20
69.57597665054502
 30
0.0
 11
29.26914161251905
 21
69.65398978507004
 31
0.0
  0
LINE
  5
68E
330
1F
100
AcDbEntity
  8
0
100
AcDbLine
 10
28.68917545223483
 20
69.08151895666639
 30
0.0
 11
28.79582245252773
 21
69.1881659569593
 31
0.0
  0
LINE
  5
68F
330
1F
100
AcDbEntity
  8
0
100
AcDbLine
 10
29.1883738186253
 20
69.58071732305686
 30
0.0
 11
29.26638695304894
 21
69.6587304574805
 31
0.0
  0
LINE
  5
690
330
1F
100
AcDbEntity
  8
0
100
AcDbLine
 10
28.68168012035061
 20
69.08151895666275
 30
0.0
 11
28.78832712064716
 21
69.1881659569593
 31
0.0
  0
LINE
  5
691
330
1F
100
AcDbEntity
  8
0
100
AcDbLine
 10
29.18561915925657
 20
69.5854579955687
 30
0.0
 11
29.26363229357882
 21
69.66347112989095
 31
0.0
  0
LINE
  5
692
330
1F
100
AcDbEntity
  8
0
100
AcDbLine
 10
28.67418478846639
 20
69.08151895665911
 30
0.0
 11
28.78083178876659
 21
69.1881659569593
 31
0.0
  0
LINE
  5
693
330
1F
100
AcDbEntity
  8
0
100
AcDbLine
 10
29.18286449988784
 20
69.59019866808056
 30
0.0
 11
29.2608776341087
 21
69.66821180230141
 31
0.0
  0
LINE
  5
694
330
1F
100
AcDbEntity
  8
0
100
AcDbLine
 10
28.66668945658218
 20
69.08151895665547
 30
0.0
 11
28.77333645688601
 21
69.1881659569593
 31
0.0
  0
LINE
  5
695
330
1F
100
AcDbEntity
  8
0
100
AcDbLine
 10
29.1801098405191
 20
69.59493934059239
 30
0.0
 11
29.25812297463859
 21
69.67295247471188
 31
0.0
  0
LINE
  5
696
330
1F
100
AcDbEntity
  8
0
100
AcDbLine
 10
28.65919412469798
 20
69.08151895665185
 30
0.0
 11
28.76584112500542
 21
69.1881659569593
 31
0.0
  0
LINE
  5
697
330
1F
100
AcDbEntity
  8
0
100
AcDbLine
 10
29.17735518115037
 20
69.59968001310423
 30
0.0
 11
29.25536831516848
 21
69.67769314712235
 31
0.0
  0
LINE
  5
698
330
1F
100
AcDbEntity
  8
0
100
AcDbLine
 10
28.65169879281376
 20
69.0815189566482
 30
0.0
 11
28.75834579312485
 21
69.1881659569593
 31
0.0
  0
LINE
  5
699
330
1F
100
AcDbEntity
  8
0
100
AcDbLine
 10
29.17460052178163
 20
69.60442068561608
 30
0.0
 11
29.25261365569837
 21
69.6824338195328
 31
0.0
  0
LINE
  5
69A
330
1F
100
AcDbEntity
  8
0
100
AcDbLine
 10
28.64420346092954
 20
69.08151895664456
 30
0.0
 11
28.75085046124427
 21
69.1881659569593
 31
0.0
  0
LINE
  5
69B
330
1F
100
AcDbEntity
  8
0
100
AcDbLine
 10
29.17184586241291
 20
69.60916135812793
 30
0.0
 11
29.24985899622825
 21
69.68717449194327
 31
0.0
  0
LINE
  5
69C
330
1F
100
AcDbEntity
  8
0
100
AcDbLine
 10
28.63670812904533
 20
69.08151895664093
 30
0.0
 11
28.74335512936369
 21
69.1881659569593
 31
0.0
  0
LINE
  5
69D
330
1F
100
AcDbEntity
  8
0
100
AcDbLine
 10
29.16909120304417
 20
69.61390203063976
 30
0.0
 11
29.24710433675814
 21
69.69191516435374
 31
0.0
  0
LINE
  5
69E
330
1F
100
AcDbEntity
  8
0
100
AcDbLine
 10
28.62921279716111
 20
69.08151895663728
 30
0.0
 11
28.73585979748312
 21
69.1881659569593
 31
0.0
  0
LINE
  5
69F
330
1F
100
AcDbEntity
  8
0
100
AcDbLine
 10
29.16633654367543
 20
69.61864270315161
 30
0.0
 11
29.24434967728801
 21
69.6966558367642
 31
0.0
  0
LINE
  5
6A0
330
1F
100
AcDbEntity
  8
0
100
AcDbLine
 10
28.6217174652769
 20
69.08151895663366
 30
0.0
 11
28.72836446560254
 21
69.1881659569593
 31
0.0
  0
LINE
  5
6A1
330
1F
100
AcDbEntity
  8
0
100
AcDbLine
 10
29.1635818843067
 20
69.62338337566345
 30
0.0
 11
29.2415950178179
 21
69.70139650917466
 31
0.0
  0
LINE
  5
6A2
330
1F
100
AcDbEntity
  8
0
100
AcDbLine
 10
28.61422213339268
 20
69.08151895663002
 30
0.0
 11
28.72086913372197
 21
69.1881659569593
 31
0.0
  0
LINE
  5
6A3
330
1F
100
AcDbEntity
  8
0
100
AcDbLine
 10
29.16082722493796
 20
69.6281240481753
 30
0.0
 11
29.23884035834778
 21
69.7061371815851
 31
0.0
  0
LINE
  5
6A4
330
1F
100
AcDbEntity
  8
0
100
AcDbLine
 10
28.60672680150849
 20
69.0815189566264
 30
0.0
 11
28.71337380184139
 21
69.1881659569593
 31
0.0
  0
LINE
  5
6A5
330
1F
100
AcDbEntity
  8
0
100
AcDbLine
 10
29.15807256556924
 20
69.63286472068714
 30
0.0
 11
29.23608569887767
 21
69.71087785399557
 31
0.0
  0
LINE
  5
6A6
330
1F
100
AcDbEntity
  8
0
100
AcDbLine
 10
28.59923146962427
 20
69.08151895662274
 30
0.0
 11
28.70587846996081
 21
69.1881659569593
 31
0.0
  0
LINE
  5
6A7
330
1F
100
AcDbEntity
  8
0
100
AcDbLine
 10
29.1553179062005
 20
69.63760539319898
 30
0.0
 11
29.23333103940756
 21
69.71561852640605
 31
0.0
  0
LINE
  5
6A8
330
1F
100
AcDbEntity
  8
0
100
AcDbLine
 10
28.59173613774005
 20
69.0815189566191
 30
0.0
 11
28.69838313808023
 21
69.1881659569593
 31
0.0
  0
LINE
  5
6A9
330
1F
100
AcDbEntity
  8
0
100
AcDbLine
 10
29.15256324683178
 20
69.64234606571084
 30
0.0
 11
29.23057637993745
 21
69.72035919881651
 31
0.0
  0
LINE
  5
6AA
330
1F
100
AcDbEntity
  8
0
100
AcDbLine
 10
28.58424080585583
 20
69.08151895661547
 30
0.0
 11
28.69088780619965
 21
69.1881659569593
 31
0.0
  0
LINE
  5
6AB
330
1F
100
AcDbEntity
  8
0
100
AcDbLine
 10
29.14980858746303
 20
69.64708673822267
 30
0.0
 11
29.22782172046733
 21
69.72509987122696
 31
0.0
  0
LINE
  5
6AC
330
1F
100
AcDbEntity
  8
0
100
AcDbLine
 10
28.57674547397162
 20
69.08151895661183
 30
0.0
 11
28.68339247431907
 21
69.18816595695928
 31
0.0
  0
LINE
  5
6AD
330
1F
100
AcDbEntity
  8
0
100
AcDbLine
 10
29.14705392809431
 20
69.65182741073451
 30
0.0
 11
29.22506706099721
 21
69.72984054363742
 31
0.0
  0
LINE
  5
6AE
330
1F
100
AcDbEntity
  8
0
100
AcDbLine
 10
28.56925014208741
 20
69.0815189566082
 30
0.0
 11
28.6758971424385
 21
69.1881659569593
 31
0.0
  0
LINE
  5
6AF
330
1F
100
AcDbEntity
  8
0
100
AcDbLine
 10
29.14429926872557
 20
69.65656808324636
 30
0.0
 11
29.2223124015271
 21
69.73458121604789
 31
0.0
  0
LINE
  5
6B0
330
1F
100
AcDbEntity
  8
0
100
AcDbLine
 10
28.5617548102032
 20
69.08151895660457
 30
0.0
 11
28.66840181055792
 21
69.1881659569593
 31
0.0
  0
LINE
  5
6B1
330
1F
100
AcDbEntity
  8
0
100
AcDbLine
 10
29.14154460935684
 20
69.66130875575821
 30
0.0
 11
29.21955774205699
 21
69.73932188845836
 31
0.0
  0
LINE
  5
6B2
330
1F
100
AcDbEntity
  8
0
100
AcDbLine
 10
28.55425947831899
 20
69.08151895660093
 30
0.0
 11
28.66090647867735
 21
69.1881659569593
 31
0.0
  0
LINE
  5
6B3
330
1F
100
AcDbEntity
  8
0
100
AcDbLine
 10
29.13878994998811
 20
69.66604942827006
 30
0.0
 11
29.21680308258687
 21
69.74406256086881
 31
0.0
  0
LINE
  5
6B4
330
1F
100
AcDbEntity
  8
0
100
AcDbLine
 10
28.54676414643478
 20
69.0815189565973
 30
0.0
 11
28.65341114679677
 21
69.1881659569593
 31
0.0
  0
LINE
  5
6B5
330
1F
100
AcDbEntity
  8
0
100
AcDbLine
 10
29.13603529061937
 20
69.67079010078189
 30
0.0
 11
29.21404842311676
 21
69.74880323327928
 31
0.0
  0
LINE
  5
6B6
330
1F
100
AcDbEntity
  8
0
100
AcDbLine
 10
28.53926881455056
 20
69.08151895659365
 30
0.0
 11
28.6459158149162
 21
69.1881659569593
 31
0.0
  0
LINE
  5
6B7
330
1F
100
AcDbEntity
  8
0
100
AcDbLine
 10
29.13328063125063
 20
69.67553077329373
 30
0.0
 11
29.21129376364663
 21
69.75354390568972
 31
0.0
  0
LINE
  5
6B8
330
1F
100
AcDbEntity
  8
0
100
AcDbLine
 10
28.53177348266634
 20
69.08151895659002
 30
0.0
 11
28.63842048303562
 21
69.1881659569593
 31
0.0
  0
LINE
  5
6B9
330
1F
100
AcDbEntity
  8
0
100
AcDbLine
 10
29.1305259718819
 20
69.68027144580557
 30
0.0
 11
29.20853910417652
 21
69.75828457810019
 31
0.0
  0
LINE
  5
6BA
330
1F
100
AcDbEntity
  8
0
100
AcDbLine
 10
28.52427815078213
 20
69.08151895658638
 30
0.0
 11
28.63092515115504
 21
69.1881659569593
 31
0.0
  0
LINE
  5
6BB
330
1F
100
AcDbEntity
  8
0
100
AcDbLine
 10
29.12777131251318
 20
69.68501211831743
 30
0.0
 11
29.20578444470641
 21
69.76302525051067
 31
0.0
  0
LINE
  5
6BC
330
1F
100
AcDbEntity
  8
0
100
AcDbLine
 10
28.51678281889791
 20
69.08151895658274
 30
0.0
 11
28.62342981927447
 21
69.1881659569593
 31
0.0
  0
LINE
  5
6BD
330
1F
100
AcDbEntity
  8
0
100
AcDbLine
 10
29.12501665314444
 20
69.68975279082926
 30
0.0
 11
29.20302978523629
 21
69.76776592292113
 31
0.0
  0
LINE
  5
6BE
330
1F
100
AcDbEntity
  8
0
100
AcDbLine
 10
28.5092874870137
 20
69.0815189565791
 30
0.0
 11
28.61593448739389
 21
69.1881659569593
 31
0.0
  0
LINE
  5
6BF
330
1F
100
AcDbEntity
  8
0
100
AcDbLine
 10
29.1222619937757
 20
69.6944934633411
 30
0.0
 11
29.20027512576619
 21
69.77250659533159
 31
0.0
  0
LINE
  5
6C0
330
1F
100
AcDbEntity
  8
0
100
AcDbLine
 10
28.50179215512949
 20
69.08151895657547
 30
0.0
 11
28.60843915551332
 21
69.1881659569593
 31
0.0
  0
LINE
  5
6C1
330
1F
100
AcDbEntity
  8
0
100
AcDbLine
 10
29.11950733440696
 20
69.69923413585295
 30
0.0
 11
29.19752046629607
 21
69.77724726774206
 31
0.0
  0
LINE
  5
6C2
330
1F
100
AcDbEntity
  8
0
100
AcDbLine
 10
28.49429682324528
 20
69.08151895657184
 30
0.0
 11
28.60094382363273
 21
69.1881659569593
 31
0.0
  0
LINE
  5
6C3
330
1F
100
AcDbEntity
  8
0
100
AcDbLine
 10
29.11675267503824
 20
69.7039748083648
 30
0.0
 11
29.19476580682596
 21
69.78198794015252
 31
0.0
  0
LINE
  5
6C4
330
1F
100
AcDbEntity
  8
0
100
AcDbLine
 10
28.48680149136107
 20
69.0815189565682
 30
0.0
 11
28.59344849175215
 21
69.1881659569593
 31
0.0
  0
LINE
  5
6C5
330
1F
100
AcDbEntity
  8
0
100
AcDbLine
 10
29.11399801566951
 20
69.70871548087663
 30
0.0
 11
29.19201114735584
 21
69.78672861256298
 31
0.0
  0
LINE
  5
6C6
330
1F
100
AcDbEntity
  8
0
100
AcDbLine
 10
28.47930615947685
 20
69.08151895656457
 30
0.0
 11
28.58595315987158
 21
69.1881659569593
 31
0.0
  0
LINE
  5
6C7
330
1F
100
AcDbEntity
  8
0
100
AcDbLine
 10
29.11124335630077
 20
69.71345615338848
 30
0.0
 11
29.18925648788573
 21
69.79146928497343
 31
0.0
  0
LINE
  5
6C8
330
1F
100
AcDbEntity
  8
0
100
AcDbLine
 10
28.47181082759264
 20
69.08151895656093
 30
0.0
 11
28.578457827991
 21
69.1881659569593
 31
0.0
  0
LINE
  5
6C9
330
1F
100
AcDbEntity
  8
0
100
AcDbLine
 10
29.10848869693204
 20
69.71819682590034
 30
0.0
 11
29.18650182841561
 21
69.7962099573839
 31
0.0
  0
LINE
  5
6CA
330
1F
100
AcDbEntity
  8
0
100
AcDbLine
 10
28.46431549570842
 20
69.08151895655729
 30
0.0
 11
28.57096249611043
 21
69.1881659569593
 31
0.0
  0
LINE
  5
6CB
330
1F
100
AcDbEntity
  8
0
100
AcDbLine
 10
29.1057340375633
 20
69.72293749841216
 30
0.0
 11
29.18374716894549
 21
69.80095062979436
 31
0.0
  0
LINE
  5
6CC
330
1F
100
AcDbEntity
  8
0
100
AcDbLine
 10
28.45682016382422
 20
69.08151895655365
 30
0.0
 11
28.56346716422985
 21
69.1881659569593
 31
0.0
  0
LINE
  5
6CD
330
1F
100
AcDbEntity
  8
0
100
AcDbLine
 10
29.10297937819457
 20
69.72767817092401
 30
0.0
 11
29.18099250947537
 21
69.80569130220482
 31
0.0
  0
LINE
  5
6CE
330
1F
100
AcDbEntity
  8
0
100
AcDbLine
 10
28.44932483194
 20
69.08151895655001
 30
0.0
 11
28.55597183234928
 21
69.1881659569593
 31
0.0
  0
LINE
  5
6CF
330
1F
100
AcDbEntity
  8
0
100
AcDbLine
 10
29.10022471882584
 20
69.73241884343585
 30
0.0
 11
29.17823785000526
 21
69.81043197461528
 31
0.0
  0
LINE
  5
6D0
330
1F
100
AcDbEntity
  8
0
100
AcDbLine
 10
28.44182950005579
 20
69.08151895654639
 30
0.0
 11
28.5484765004687
 21
69.1881659569593
 31
0.0
  0
LINE
  5
6D1
330
1F
100
AcDbEntity
  8
0
100
AcDbLine
 10
29.09747005945711
 20
69.73715951594771
 30
0.0
 11
29.17548319053514
 21
69.81517264702573
 31
0.0
  0
LINE
  5
6D2
330
1F
100
AcDbEntity
  8
0
100
AcDbLine
 10
28.43433416817158
 20
69.08151895654275
 30
0.0
 11
28.54098116858812
 21
69.1881659569593
 31
0.0
  0
LINE
  5
6D3
330
1F
100
AcDbEntity
  8
0
100
AcDbLine
 10
29.09471540008838
 20
69.74190018845955
 30
0.0
 11
29.17272853106504
 21
69.81991331943621
 31
0.0
  0
LINE
  5
6D4
330
1F
100
AcDbEntity
  8
0
100
AcDbLine
 10
28.42683883628736
 20
69.08151895653911
 30
0.0
 11
28.53348583670754
 21
69.1881659569593
 31
0.0
  0
LINE
  5
6D5
330
1F
100
AcDbEntity
  8
0
100
AcDbLine
 10
29.09196074071964
 20
69.74664086097138
 30
0.0
 11
29.16997387159492
 21
69.82465399184667
 31
0.0
  0
LINE
  5
6D6
330
1F
100
AcDbEntity
  8
0
100
AcDbLine
 10
28.41934350440314
 20
69.08151895653548
 30
0.0
 11
28.52599050482696
 21
69.1881659569593
 31
0.0
  0
LINE
  5
6D7
330
1F
100
AcDbEntity
  8
0
100
AcDbLine
 10
29.0892060813509
 20
69.75138153348323
 30
0.0
 11
29.16721921212481
 21
69.82939466425714
 31
0.0
  0
LINE
  5
6D8
330
1F
100
AcDbEntity
  8
0
100
AcDbLine
 10
28.41184817251892
 20
69.08151895653182
 30
0.0
 11
28.51849517294639
 21
69.1881659569593
 31
0.0
  0
LINE
  5
6D9
330
1F
100
AcDbEntity
  8
0
100
AcDbLine
 10
29.08645142198217
 20
69.75612220599507
 30
0.0
 11
29.16446455265469
 21
69.83413533666759
 31
0.0
  0
LINE
  5
6DA
330
1F
100
AcDbEntity
  8
0
100
AcDbLine
 10
28.40435284063471
 20
69.0815189565282
 30
0.0
 11
28.51099984106581
 21
69.1881659569593
 31
0.0
  0
LINE
  5
6DB
330
1F
100
AcDbEntity
  8
0
100
AcDbLine
 10
29.08369676261344
 20
69.76086287850693
 30
0.0
 11
29.16170989318457
 21
69.83887600907805
 31
0.0
  0
LINE
  5
6DC
330
1F
100
AcDbEntity
  8
0
100
AcDbLine
 10
28.39685750875051
 20
69.08151895652456
 30
0.0
 11
28.50350450918523
 21
69.1881659569593
 31
0.0
  0
LINE
  5
6DD
330
1F
100
AcDbEntity
  8
0
100
AcDbLine
 10
29.08094210324471
 20
69.76560355101876
 30
0.0
 11
29.15895523371446
 21
69.84361668148851
 31
0.0
  0
LINE
  5
6DE
330
1F
100
AcDbEntity
  8
0
100
AcDbLine
 10
28.38936217686629
 20
69.08151895652092
 30
0.0
 11
28.49600917730466
 21
69.1881659569593
 31
0.0
  0
LINE
  5
6DF
330
1F
100
AcDbEntity
  8
0
100
AcDbLine
 10
29.07818744387598
 20
69.77034422353061
 30
0.0
 11
29.15620057424434
 21
69.84835735389898
 31
0.0
  0
LINE
  5
6E0
330
1F
100
AcDbEntity
  8
0
100
AcDbLine
 10
28.38186684498208
 20
69.08151895651729
 30
0.0
 11
28.48851384542408
 21
69.1881659569593
 31
0.0
  0
LINE
  5
6E1
330
1F
100
AcDbEntity
  8
0
100
AcDbLine
 10
28.7296657787379
 20
69.42931789027311
 30
0.0
 11
28.73023052256805
 21
69.42988263410325
 31
0.0
  0
LINE
  5
6E2
330
1F
100
AcDbEntity
  8
0
100
AcDbLine
 10
29.07543278450724
 20
69.77508489604246
 30
0.0
 11
29.15344591477423
 21
69.85309802630944
 31
0.0
  0
LINE
  5
6E3
330
1F
100
AcDbEntity
  8
0
100
AcDbLine
 10
28.37437151309787
 20
69.08151895651366
 30
0.0
 11
28.4810185135435
 21
69.18816595695928
 31
0.0
  0
LINE
  5
6E4
330
1F
100
AcDbEntity
  8
0
100
AcDbLine
 10
29.07267812513851
 20
69.7798255685543
 30
0.0
 11
29.15069125530412
 21
69.8578386987199
 31
0.0
  0
LINE
  5
6E5
330
1F
100
AcDbEntity
  8
0
100
AcDbLine
 10
28.36687618121365
 20
69.08151895651002
 30
0.0
 11
28.47352318166293
 21
69.1881659569593
 31
0.0
  0
LINE
  5
6E6
330
1F
100
AcDbEntity
  8
0
100
AcDbLine
 10
29.06992346576977
 20
69.78456624106613
 30
0.0
 11
29.147936595834
 21
69.86257937113037
 31
0.0
  0
LINE
  5
6E7
330
1F
100
AcDbEntity
  8
0
100
AcDbLine
 10
28.35938084932944
 20
69.08151895650639
 30
0.0
 11
28.46602784978236
 21
69.1881659569593
 31
0.0
  0
LINE
  5
6E8
330
1F
100
AcDbEntity
  8
0
100
AcDbLine
 10
29.06716880640104
 20
69.78930691357797
 30
0.0
 11
29.14518193636389
 21
69.86732004354083
 31
0.0
  0
LINE
  5
6E9
330
1F
100
AcDbEntity
  8
0
100
AcDbLine
 10
28.35188551744523
 20
69.08151895650275
 30
0.0
 11
28.45853251790178
 21
69.1881659569593
 31
0.0
  0
LINE
  5
6EA
330
1F
100
AcDbEntity
  8
0
100
AcDbLine
 10
29.06441414703231
 20
69.79404758608983
 30
0.0
 11
29.14242727689377
 21
69.87206071595129
 31
0.0
  0
LINE
  5
6EB
330
1F
100
AcDbEntity
  8
0
100
AcDbLine
 10
28.34439018556102
 20
69.08151895649911
 30
0.0
 11
28.4510371860212
 21
69.1881659569593
 31
0.0
  0
LINE
  5
6EC
330
1F
100
AcDbEntity
  8
0
100
AcDbLine
 10
29.06165948766358
 20
69.79878825860168
 30
0.0
 11
29.13967261742365
 21
69.87680138836176
 31
0.0
  0
LINE
  5
6ED
330
1F
100
AcDbEntity
  8
0
100
AcDbLine
 10
28.3368948536768
 20
69.08151895649547
 30
0.0
 11
28.44354185414063
 21
69.1881659569593
 31
0.0
  0
LINE
  5
6EE
330
1F
100
AcDbEntity
  8
0
100
AcDbLine
 10
29.05890482829484
 20
69.8035289311135
 30
0.0
 11
29.13691795795355
 21
69.88154206077222
 31
0.0
  0
LINE
  5
6EF
330
1F
100
AcDbEntity
  8
0
100
AcDbLine
 10
28.32939952179259
 20
69.08151895649183
 30
0.0
 11
28.43604652226004
 21
69.1881659569593
 31
0.0
  0
LINE
  5
6F0
330
1F
100
AcDbEntity
  8
0
100
AcDbLine
 10
29.0561501689261
 20
69.80826960362535
 30
0.0
 11
29.13416329848343
 21
69.88628273318268
 31
0.0
  0
LINE
  5
6F1
330
1F
100
AcDbEntity
  8
0
100
AcDbLine
 10
28.32190418990837
 20
69.0815189564882
 30
0.0
 11
28.42855119037946
 21
69.1881659569593
 31
0.0
  0
LINE
  5
6F2
330
1F
100
AcDbEntity
  8
0
100
AcDbLine
 10
29.05339550955738
 20
69.8130102761372
 30
0.0
 11
29.1314086390133
 21
69.89102340559313
 31
0.0
  0
LINE
  5
6F3
330
1F
100
AcDbEntity
  8
0
100
AcDbLine
 10
28.31440885802416
 20
69.08151895648457
 30
0.0
 11
28.42105585849889
 21
69.1881659569593
 31
0.0
  0
LINE
  5
6F4
330
1F
100
AcDbEntity
  8
0
100
AcDbLine
 10
29.05064085018864
 20
69.81775094864905
 30
0.0
 11
29.1286539795432
 21
69.89576407800361
 31
0.0
  0
LINE
  5
6F5
330
1F
100
AcDbEntity
  8
0
100
AcDbLine
 10
28.30691352613994
 20
69.08151895648092
 30
0.0
 11
28.41356052661831
 21
69.1881659569593
 31
0.0
  0
LINE
  5
6F6
330
1F
100
AcDbEntity
  8
0
100
AcDbLine
 10
29.04788619081991
 20
69.82249162116088
 30
0.0
 11
29.12589932007308
 21
69.90050475041406
 31
0.0
  0
LINE
  5
6F7
330
1F
100
AcDbEntity
  8
0
100
AcDbLine
 10
28.29941819425574
 20
69.0815189564773
 30
0.0
 11
28.40606519473774
 21
69.1881659569593
 31
0.0
  0
LINE
  5
6F8
330
1F
100
AcDbEntity
  8
0
100
AcDbLine
 10
29.04513153145118
 20
69.82723229367274
 30
0.0
 11
29.12314466060297
 21
69.90524542282452
 31
0.0
  0
LINE
  5
6F9
330
1F
100
AcDbEntity
  8
0
100
AcDbLine
 10
28.29192286237152
 20
69.08151895647364
 30
0.0
 11
28.39856986285716
 21
69.1881659569593
 31
0.0
  0
LINE
  5
6FA
330
1F
100
AcDbEntity
  8
0
100
AcDbLine
 10
29.04237687208243
 20
69.83197296618457
 30
0.0
 11
29.12039000113285
 21
69.90998609523498
 31
0.0
  0
LINE
  5
6FB
330
1F
100
AcDbEntity
  8
0
100
AcDbLine
 10
28.2844275304873
 20
69.08151895647
 30
0.0
 11
28.39107453097658
 21
69.18816595695928
 31
0.0
  0
LINE
  5
6FC
330
1F
100
AcDbEntity
  8
0
100
AcDbLine
 10
29.03962221271371
 20
69.83671363869642
 30
0.0
 11
29.11763534166274
 21
69.91472676764545
 31
0.0
  0
LINE
  5
6FD
330
1F
100
AcDbEntity
  8
0
100
AcDbLine
 10
28.2769321986031
 20
69.08151895646638
 30
0.0
 11
28.38357919909601
 21
69.1881659569593
 31
0.0
  0
LINE
  5
6FE
330
1F
100
AcDbEntity
  8
0
100
AcDbLine
 10
29.03686755334497
 20
69.84145431120825
 30
0.0
 11
29.11488068219262
 21
69.91946744005591
 31
0.0
  0
LINE
  5
6FF
330
1F
100
AcDbEntity
  8
0
100
AcDbLine
 10
28.26943686671888
 20
69.08151895646274
 30
0.0
 11
28.37608386721543
 21
69.1881659569593
 31
0.0
  0
LINE
  5
700
330
1F
100
AcDbEntity
  8
0
100
AcDbLine
 10
29.03411289397625
 20
69.84619498372011
 30
0.0
 11
29.11212602272251
 21
69.92420811246637
 31
0.0
  0
LINE
  5
701
330
1F
100
AcDbEntity
  8
0
100
AcDbLine
 10
28.26194153483467
 20
69.08151895645912
 30
0.0
 11
28.36858853533485
 21
69.1881659569593
 31
0.0
  0
LINE
  5
702
330
1F
100
AcDbEntity
  8
0
100
AcDbLine
 10
29.03135823460751
 20
69.85093565623195
 30
0.0
 11
29.1093713632524
 21
69.92894878487684
 31
0.0
  0
LINE
  5
703
330
1F
100
AcDbEntity
  8
0
100
AcDbLine
 10
28.25444620295045
 20
69.08151895645547
 30
0.0
 11
28.36109320345427
 21
69.1881659569593
 31
0.0
  0
LINE
  5
704
330
1F
100
AcDbEntity
  8
0
100
AcDbLine
 10
29.02860357523877
 20
69.8556763287438
 30
0.0
 11
29.10661670378228
 21
69.9336894572873
 31
0.0
  0
LINE
  5
705
330
1F
100
AcDbEntity
  8
0
100
AcDbLine
 10
28.24695087106624
 20
69.08151895645183
 30
0.0
 11
28.3535978715737
 21
69.1881659569593
 31
0.0
  0
LINE
  5
706
330
1F
100
AcDbEntity
  8
0
100
AcDbLine
 10
29.02584891587004
 20
69.86041700125563
 30
0.0
 11
29.10386204431217
 21
69.93843012969776
 31
0.0
  0
LINE
  5
707
330
1F
100
AcDbEntity
  8
0
100
AcDbLine
 10
28.23945553918203
 20
69.08151895644819
 30
0.0
 11
28.34610253969312
 21
69.1881659569593
 31
0.0
  0
LINE
  5
708
330
1F
100
AcDbEntity
  8
0
100
AcDbLine
 10
29.02309425650131
 20
69.86515767376748
 30
0.0
 11
29.10110738484205
 21
69.94317080210821
 31
0.0
  0
LINE
  5
709
330
1F
100
AcDbEntity
  8
0
100
AcDbLine
 10
28.23196020729782
 20
69.08151895644457
 30
0.0
 11
28.33860720781254
 21
69.1881659569593
 31
0.0
  0
LINE
  5
70A
330
1F
100
AcDbEntity
  8
0
100
AcDbLine
 10
29.02033959713258
 20
69.86989834627933
 30
0.0
 11
29.09835272537193
 21
69.94791147451868
 31
0.0
  0
LINE
  5
70B
330
1F
100
AcDbEntity
  8
0
100
AcDbLine
 10
28.2244648754136
 20
69.08151895644093
 30
0.0
 11
28.33111187593197
 21
69.1881659569593
 31
0.0
  0
LINE
  5
70C
330
1F
100
AcDbEntity
  8
0
100
AcDbLine
 10
29.01758493776384
 20
69.87463901879117
 30
0.0
 11
29.09559806590182
 21
69.95265214692914
 31
0.0
  0
LINE
  5
70D
330
1F
100
AcDbEntity
  8
0
100
AcDbLine
 10
28.21696954352938
 20
69.08151895643728
 30
0.0
 11
28.32361654405139
 21
69.1881659569593
 31
0.0
  0
LINE
  5
70E
330
1F
100
AcDbEntity
  8
0
100
AcDbLine
 10
29.01483027839512
 20
69.87937969130301
 30
0.0
 11
29.0928434064317
 21
69.9573928193396
 31
0.0
  0
LINE
  5
70F
330
1F
100
AcDbEntity
  8
0
100
AcDbLine
 10
28.20947421164518
 20
69.08151895643365
 30
0.0
 11
28.31612121217082
 21
69.1881659569593
 31
0.0
  0
LINE
  5
710
330
1F
100
AcDbEntity
  8
0
100
AcDbLine
 10
29.01207561902637
 20
69.88412036381484
 30
0.0
 11
29.09008874696158
 21
69.96213349175007
 31
0.0
  0
LINE
  5
711
330
1F
100
AcDbEntity
  8
0
100
AcDbLine
 10
28.20197887976096
 20
69.08151895643002
 30
0.0
 11
28.30862588029024
 21
69.1881659569593
 31
0.0
  0
LINE
  5
712
330
1F
100
AcDbEntity
  8
0
100
AcDbLine
 10
29.00932095965764
 20
69.8888610363267
 30
0.0
 11
29.08733408749148
 21
69.96687416416053
 31
0.0
  0
LINE
  5
713
330
1F
100
AcDbEntity
  8
0
100
AcDbLine
 10
28.19448354787675
 20
69.08151895642638
 30
0.0
 11
28.30113054840966
 21
69.1881659569593
 31
0.0
  0
LINE
  5
714
330
1F
100
AcDbEntity
  8
0
100
AcDbLine
 10
29.00656630028891
 20
69.89360170883855
 30
0.0
 11
29.08457942802136
 21
69.97161483657099
 31
0.0
  0
LINE
  5
715
330
1F
100
AcDbEntity
  8
0
100
AcDbLine
 10
28.18698821599253
 20
69.08151895642274
 30
0.0
 11
28.29363521652909
 21
69.1881659569593
 31
0.0
  0
LINE
  5
716
330
1F
100
AcDbEntity
  8
0
100
AcDbLine
 10
29.00381164092017
 20
69.89834238135037
 30
0.0
 11
29.08182476855125
 21
69.97635550898146
 31
0.0
  0
LINE
  5
717
330
1F
100
AcDbEntity
  8
0
100
AcDbLine
 10
28.17949288410832
 20
69.0815189564191
 30
0.0
 11
28.28613988464851
 21
69.1881659569593
 31
0.0
  0
LINE
  5
718
330
1F
100
AcDbEntity
  8
0
100
AcDbLine
 10
29.00105698155145
 20
69.90308305386223
 30
0.0
 11
29.07907010908113
 21
69.98109618139192
 31
0.0
  0
LINE
  5
719
330
1F
100
AcDbEntity
  8
0
100
AcDbLine
 10
28.17199755222411
 20
69.08151895641548
 30
0.0
 11
28.27864455276793
 21
69.1881659569593
 31
0.0
  0
LINE
  5
71A
330
1F
100
AcDbEntity
  8
0
100
AcDbLine
 10
28.99830232218271
 20
69.90782372637408
 30
0.0
 11
29.07631544961102
 21
69.98583685380238
 31
0.0
  0
LINE
  5
71B
330
1F
100
AcDbEntity
  8
0
100
AcDbLine
 10
28.16450222033991
 20
69.08151895641184
 30
0.0
 11
28.27114922088735
 21
69.1881659569593
 31
0.0
  0
LINE
  5
71C
330
1F
100
AcDbEntity
  8
0
100
AcDbLine
 10
28.99554766281397
 20
69.91256439888592
 30
0.0
 11
29.0735607901409
 21
69.99057752621283
 31
0.0
  0
LINE
  5
71D
330
1F
100
AcDbEntity
  8
0
100
AcDbLine
 10
28.15700688845569
 20
69.0815189564082
 30
0.0
 11
28.26365388900678
 21
69.1881659569593
 31
0.0
  0
LINE
  5
71E
330
1F
100
AcDbEntity
  8
0
100
AcDbLine
 10
28.99279300344524
 20
69.91730507139775
 30
0.0
 11
29.07080613067079
 21
69.99531819862331
 31
0.0
  0
LINE
  5
71F
330
1F
100
AcDbEntity
  8
0
100
AcDbLine
 10
28.14951155657146
 20
69.08151895640457
 30
0.0
 11
28.2561585571262
 21
69.1881659569593
 31
0.0
  0
LINE
  5
720
330
1F
100
AcDbEntity
  8
0
100
AcDbLine
 10
28.99003834407651
 20
69.9220457439096
 30
0.0
 11
29.06805147120068
 21
70.00005887103377
 31
0.0
  0
LINE
  5
721
330
1F
100
AcDbEntity
  8
0
100
AcDbLine
 10
28.14201622468726
 20
69.08151895640093
 30
0.0
 11
28.24866322524562
 21
69.1881659569593
 31
0.0
  0
LINE
  5
722
330
1F
100
AcDbEntity
  8
0
100
AcDbLine
 10
28.98728368470778
 20
69.92678641642145
 30
0.0
 11
29.06529681173055
 21
70.00479954344422
 31
0.0
  0
LINE
  5
723
330
1F
100
AcDbEntity
  8
0
100
AcDbLine
 10
28.13452089280304
 20
69.08151895639729
 30
0.0
 11
28.24116789336505
 21
69.1881659569593
 31
0.0
  0
LINE
  5
724
330
1F
100
AcDbEntity
  8
0
100
AcDbLine
 10
28.98452902533905
 20
69.9315270889333
 30
0.0
 11
29.06254215226044
 21
70.00954021585468
 31
0.0
  0
LINE
  5
725
330
1F
100
AcDbEntity
  8
0
100
AcDbLine
 10
28.12702556091883
 20
69.08151895639365
 30
0.0
 11
28.23367256148447
 21
69.1881659569593
 31
0.0
  0
LINE
  5
726
330
1F
100
AcDbEntity
  8
0
100
AcDbLine
 10
28.98177436597031
 20
69.93626776144512
 30
0.0
 11
29.05978749279033
 21
70.01428088826515
 31
0.0
  0
LINE
  5
727
330
1F
100
AcDbEntity
  8
0
100
AcDbLine
 10
28.11953022903462
 20
69.08151895639003
 30
0.0
 11
28.22617722960389
 21
69.18816595695928
 31
0.0
  0
LINE
  5
728
330
1F
100
AcDbEntity
  8
0
100
AcDbLine
 10
28.97901970660158
 20
69.94100843395698
 30
0.0
 11
29.05703283332022
 21
70.01902156067563
 31
0.0
  0
LINE
  5
729
330
1F
100
AcDbEntity
  8
0
100
AcDbLine
 10
28.11203489715041
 20
69.08151895638638
 30
0.0
 11
28.21868189772332
 21
69.1881659569593
 31
0.0
  0
LINE
  5
72A
330
1F
100
AcDbEntity
  8
0
100
AcDbLine
 10
28.97626504723284
 20
69.94574910646882
 30
0.0
 11
29.0542781738501
 21
70.02376223308607
 31
0.0
  0
LINE
  5
72B
330
1F
100
AcDbEntity
  8
0
100
AcDbLine
 10
28.1045395652662
 20
69.08151895638275
 30
0.0
 11
28.21118656584274
 21
69.1881659569593
 31
0.0
  0
LINE
  5
72C
330
1F
100
AcDbEntity
  8
0
100
AcDbLine
 10
28.97351038786411
 20
69.95048977898067
 30
0.0
 11
29.05152351437999
 21
70.02850290549654
 31
0.0
  0
LINE
  5
72D
330
1F
100
AcDbEntity
  8
0
100
AcDbLine
 10
28.09704423338198
 20
69.08151895637911
 30
0.0
 11
28.20369123396216
 21
69.1881659569593
 31
0.0
  0
LINE
  5
72E
330
1F
100
AcDbEntity
  8
0
100
AcDbLine
 10
28.97075572849538
 20
69.95523045149251
 30
0.0
 11
29.04876885490987
 21
70.033243577907
 31
0.0
  0
LINE
  5
72F
330
1F
100
AcDbEntity
  8
0
100
AcDbLine
 10
28.08954890149777
 20
69.08151895637548
 30
0.0
 11
28.19619590208158
 21
69.1881659569593
 31
0.0
  0
LINE
  5
730
330
1F
100
AcDbEntity
  8
0
100
AcDbLine
 10
28.96800106912664
 20
69.95997112400434
 30
0.0
 11
29.04601419543975
 21
70.03798425031745
 31
0.0
  0
LINE
  5
731
330
1F
100
AcDbEntity
  8
0
100
AcDbLine
 10
28.08205356961355
 20
69.08151895637184
 30
0.0
 11
28.188700570201
 21
69.18816595695928
 31
0.0
  0
LINE
  5
732
330
1F
100
AcDbEntity
  8
0
100
AcDbLine
 10
28.96524640975791
 20
69.9647117965162
 30
0.0
 11
29.04325953596963
 21
70.04272492272791
 31
0.0
  0
LINE
  5
733
330
1F
100
AcDbEntity
  8
0
100
AcDbLine
 10
28.07455823772933
 20
69.08151895636819
 30
0.0
 11
28.18120523832043
 21
69.1881659569593
 31
0.0
  0
LINE
  5
734
330
1F
100
AcDbEntity
  8
0
100
AcDbLine
 10
28.96249175038917
 20
69.96945246902804
 30
0.0
 11
29.04050487649953
 21
70.04746559513839
 31
0.0
  0
LINE
  5
735
330
1F
100
AcDbEntity
  8
0
100
AcDbLine
 10
28.06706290584512
 20
69.08151895636456
 30
0.0
 11
28.17370990643985
 21
69.1881659569593
 31
0.0
  0
LINE
  5
736
330
1F
100
AcDbEntity
  8
0
100
AcDbLine
 10
28.95973709102044
 20
69.97419314153987
 30
0.0
 11
29.03775021702941
 21
70.05220626754885
 31
0.0
  0
LINE
  5
737
330
1F
100
AcDbEntity
  8
0
100
AcDbLine
 10
28.05956757396092
 20
69.08151895636092
 30
0.0
 11
28.16621457455928
 21
69.1881659569593
 31
0.0
  0
LINE
  5
738
330
1F
100
AcDbEntity
  8
0
100
AcDbLine
 10
28.95698243165171
 20
69.97893381405173
 30
0.0
 11
29.0349955575593
 21
70.0569469399593
 31
0.0
  0
LINE
  5
739
330
1F
100
AcDbEntity
  8
0
100
AcDbLine
 10
28.0520722420767
 20
69.0815189563573
 30
0.0
 11
28.1587192426787
 21
69.1881659569593
 31
0.0
  0
LINE
  5
73A
330
1F
100
AcDbEntity
  8
0
100
AcDbLine
 10
28.95422777228298
 20
69.98367448656357
 30
0.0
 11
29.03224089808919
 21
70.06168761236978
 31
0.0
  0
LINE
  5
73B
330
1F
100
AcDbEntity
  8
0
100
AcDbLine
 10
28.04457691019249
 20
69.08151895635366
 30
0.0
 11
28.15122391079813
 21
69.1881659569593
 31
0.0
  0
LINE
  5
73C
330
1F
100
AcDbEntity
  8
0
100
AcDbLine
 10
28.95147311291424
 20
69.98841515907542
 30
0.0
 11
29.02948623861907
 21
70.06642828478024
 31
0.0
  0
LINE
  5
73D
330
1F
100
AcDbEntity
  8
0
100
AcDbLine
 10
28.03708157830827
 20
69.08151895635001
 30
0.0
 11
28.14372857891755
 21
69.1881659569593
 31
0.0
  0
LINE
  5
73E
330
1F
100
AcDbEntity
  8
0
100
AcDbLine
 10
28.94871845354551
 20
69.99315583158725
 30
0.0
 11
29.02673157914895
 21
70.07116895719071
 31
0.0
  0
LINE
  5
73F
330
1F
100
AcDbEntity
  8
0
100
AcDbLine
 10
28.02958624642406
 20
69.08151895634639
 30
0.0
 11
28.13623324703697
 21
69.1881659569593
 31
0.0
  0
LINE
  5
740
330
1F
100
AcDbEntity
  8
0
100
AcDbLine
 10
28.94596379417678
 20
69.9978965040991
 30
0.0
 11
29.02397691967884
 21
70.07590962960116
 31
0.0
  0
LINE
  5
741
330
1F
100
AcDbEntity
  8
0
100
AcDbLine
 10
28.02209091453984
 20
69.08151895634273
 30
0.0
 11
28.1287379151564
 21
69.1881659569593
 31
0.0
  0
LINE
  5
742
330
1F
100
AcDbEntity
  8
0
100
AcDbLine
 10
28.94320913480804
 20
70.00263717661095
 30
0.0
 11
29.02122226020872
 21
70.08065030201162
 31
0.0
  0
LINE
  5
743
330
1F
100
AcDbEntity
  8
0
100
AcDbLine
 10
28.01459558265562
 20
69.0815189563391
 30
0.0
 11
28.12124258327582
 21
69.1881659569593
 31
0.0
  0
LINE
  5
744
330
1F
100
AcDbEntity
  8
0
100
AcDbLine
 10
28.94045447543931
 20
70.00737784912279
 30
0.0
 11
29.01846760073861
 21
70.08539097442208
 31
0.0
  0
LINE
  5
745
330
1F
100
AcDbEntity
  8
0
100
AcDbLine
 10
28.00710025077142
 20
69.08151895633547
 30
0.0
 11
28.11374725139524
 21
69.1881659569593
 31
0.0
  0
LINE
  5
746
330
1F
100
AcDbEntity
  8
0
100
AcDbLine
 10
28.57656562681597
 20
69.65098433238002
 30
0.0
 11
28.58105951988784
 21
69.65547822545189
 31
0.0
  0
LINE
  5
747
330
1F
100
AcDbEntity
  8
0
100
AcDbLine
 10
28.93769981607057
 20
70.01211852163462
 30
0.0
 11
29.01571294126849
 21
70.09013164683255
 31
0.0
  0
LINE
  5
748
330
1F
100
AcDbEntity
  8
0
100
AcDbLine
 10
27.99960491888721
 20
69.08151895633183
 30
0.0
 11
28.10625191951466
 21
69.1881659569593
 31
0.0
  0
LINE
  5
749
330
1F
100
AcDbEntity
  8
0
100
AcDbLine
 10
28.56907029493539
 20
69.65098433238002
 30
0.0
 11
28.57825079751286
 21
69.66016483495748
 31
0.0
  0
LINE
  5
74A
330
1F
100
AcDbEntity
  8
0
100
AcDbLine
 10
28.93494515670185
 20
70.01685919414648
 30
0.0
 11
29.01295828179838
 21
70.09487231924301
 31
0.0
  0
LINE
  5
74B
330
1F
100
AcDbEntity
  8
0
100
AcDbLine
 10
27.99210958700299
 20
69.0815189563282
 30
0.0
 11
28.09875658763408
 21
69.18816595695928
 31
0.0
  0
LINE
  5
74C
330
1F
100
AcDbEntity
  8
0
100
AcDbLine
 10
28.56157496305482
 20
69.65098433238002
 30
0.0
 11
28.57545095546027
 21
69.66486032478548
 31
0.0
  0
LINE
  5
74D
330
1F
100
AcDbEntity
  8
0
100
AcDbLine
 10
28.93219049733311
 20
70.02159986665832
 30
0.0
 11
29.01020362232826
 21
70.09961299165346
 31
0.0
  0
LINE
  5
74E
330
1F
100
AcDbEntity
  8
0
100
AcDbLine
 10
27.98461425511878
 20
69.08151895632456
 30
0.0
 11
28.09126125575351
 21
69.1881659569593
 31
0.0
  0
LINE
  5
74F
330
1F
100
AcDbEntity
  8
0
100
AcDbLine
 10
28.55407963117424
 20
69.65098433238002
 30
0.0
 11
28.57265443250265
 21
69.66955913370843
 31
0.0
  0
LINE
  5
750
330
1F
100
AcDbEntity
  8
0
100
AcDbLine
 10
28.92943583796437
 20
70.02634053917016
 30
0.0
 11
29.00744896285814
 21
70.10435366406392
 31
0.0
  0
LINE
  5
751
330
1F
100
AcDbEntity
  8
0
100
AcDbLine
 10
27.97711892323456
 20
69.08151895632092
 30
0.0
 11
28.08376592387293
 21
69.1881659569593
 31
0.0
  0
LINE
  5
752
330
1F
100
AcDbEntity
  8
0
100
AcDbLine
 10
28.54658429929366
 20
69.65098433238002
 30
0.0
 11
28.56987027291414
 21
69.6742703060005
 31
0.0
  0
LINE
  5
753
330
1F
100
AcDbEntity
  8
0
100
AcDbLine
 10
28.92668117859565
 20
70.03108121168201
 30
0.0
 11
29.00469430338804
 21
70.1090943364744
 31
0.0
  0
LINE
  5
754
330
1F
100
AcDbEntity
  8
0
100
AcDbLine
 10
27.96962359135035
 20
69.08151895631728
 30
0.0
 11
28.07627059199236
 21
69.1881659569593
 31
0.0
  0
LINE
  5
755
330
1F
100
AcDbEntity
  8
0
100
AcDbLine
 10
28.53908896741309
 20
69.65098433238003
 30
0.0
 11
28.56709834032158
 21
69.67899370528852
 31
0.0
  0
LINE
  5
756
330
1F
100
AcDbEntity
  8
0
100
AcDbLine
 10
28.92392651922691
 20
70.03582188419385
 30
0.0
 11
29.00193964391792
 21
70.11383500888486
 31
0.0
  0
LINE
  5
757
330
1F
100
AcDbEntity
  8
0
100
AcDbLine
 10
27.96212825946613
 20
69.08151895631364
 30
0.0
 11
28.06877526011178
 21
69.1881659569593
 31
0.0
  0
LINE
  5
758
330
1F
100
AcDbEntity
  8
0
100
AcDbLine
 10
28.5315936355325
 20
69.65098433238002
 30
0.0
 11
28.56433721570039
 21
69.68372791254791
 31
0.0
  0
LINE
  5
759
330
1F
100
AcDbEntity
  8
0
100
AcDbLine
 10
28.92117185985819
 20
70.0405625567057
 30
0.0
 11
28.9991849844478
 21
70.11857568129531
 31
0.0
  0
LINE
  5
75A
330
1F
100
AcDbEntity
  8
0
100
AcDbLine
 10
27.95463292758193
 20
69.08151895631002
 30
0.0
 11
28.0612799282312
 21
69.18816595695928
 31
0.0
  0
LINE
  5
75B
330
1F
100
AcDbEntity
  8
0
100
AcDbLine
 10
28.52409830365193
 20
69.65098433238002
 30
0.0
 11
28.56160265505824
 21
69.68848868378633
 31
0.0
  0
LINE
  5
75C
330
1F
100
AcDbEntity
  8
0
100
AcDbLine
 10
28.91841720048944
 20
70.04530322921754
 30
0.0
 11
28.99643032497769
 21
70.12331635370577
 31
0.0
  0
LINE
  5
75D
330
1F
100
AcDbEntity
  8
0
100
AcDbLine
 10
27.94713759569771
 20
69.08151895630637
 30
0.0
 11
28.05378459635063
 21
69.1881659569593
 31
0.0
  0
LINE
  5
75E
330
1F
100
AcDbEntity
  8
0
100
AcDbLine
 10
28.51660297177135
 20
69.65098433238002
 30
0.0
 11
28.55887281519481
 21
69.69325417580347
 31
0.0
  0
LINE
  5
75F
330
1F
100
AcDbEntity
  8
0
100
AcDbLine
 10
28.91566254112071
 20
70.05004390172938
 30
0.0
 11
28.99367566550757
 21
70.12805702611624
 31
0.0
  0
LINE
  5
760
330
1F
100
AcDbEntity
  8
0
100
AcDbLine
 10
27.9396422638135
 20
69.08151895630274
 30
0.0
 11
28.04628926447005
 21
69.1881659569593
 31
0.0
  0
LINE
  5
761
330
1F
100
AcDbEntity
  8
0
100
AcDbLine
 10
28.51019971669054
 20
69.65207640917978
 30
0.0
 11
28.55618901355299
 21
69.69806570604223
 31
0.0
  0
LINE
  5
762
330
1F
100
AcDbEntity
  8
0
100
AcDbLine
 10
28.91290788175198
 20
70.05478457424122
 30
0.0
 11
28.99092100603746
 21
70.1327976985267
 31
0.0
  0
LINE
  5
763
330
1F
100
AcDbEntity
  8
0
100
AcDbLine
 10
27.93214693192929
 20
69.0815189562991
 30
0.0
 11
28.03879393258947
 21
69.1881659569593
 31
0.0
  0
LINE
  5
764
330
1F
100
AcDbEntity
  8
0
100
AcDbLine
 10
28.50733908077236
 20
69.65671110514218
 30
0.0
 11
28.55350521191116
 21
69.70287723628098
 31
0.0
  0
LINE
  5
765
330
1F
100
AcDbEntity
  8
0
100
AcDbLine
 10
28.91015322238324
 20
70.05952524675307
 30
0.0
 11
28.98816634656734
 21
70.13753837093716
 31
0.0
  0
LINE
  5
766
330
1F
100
AcDbEntity
  8
0
100
AcDbLine
 10
27.92465160004507
 20
69.08151895629547
 30
0.0
 11
28.03129860070889
 21
69.1881659569593
 31
0.0
  0
LINE
  5
767
330
1F
100
AcDbEntity
  8
0
100
AcDbLine
 10
28.50447844485419
 20
69.66134580110459
 30
0.0
 11
28.55088120080914
 21
69.70774855705953
 31
0.0
  0
LINE
  5
768
330
1F
100
AcDbEntity
  8
0
100
AcDbLine
 10
28.90739856301451
 20
70.06426591926491
 30
0.0
 11
28.98541168709723
 21
70.14227904334763
 31
0.0
  0
LINE
  5
769
330
1F
100
AcDbEntity
  8
0
100
AcDbLine
 10
27.91715626816086
 20
69.08151895629183
 30
0.0
 11
28.02380326882831
 21
69.18816595695928
 31
0.0
  0
LINE
  5
76A
330
1F
100
AcDbEntity
  8
0
100
AcDbLine
 10
28.50163007251919
 20
69.66599276065017
 30
0.0
 11
28.54826239057081
 21
69.71262507870178
 31
0.0
  0
LINE
  5
76B
330
1F
100
AcDbEntity
  8
0
100
AcDbLine
 10
28.90464390364577
 20
70.06900659177674
 30
0.0
 11
28.98265702762712
 21
70.14701971575809
 31
0.0
  0
LINE
  5
76C
330
1F
100
AcDbEntity
  8
0
100
AcDbLine
 10
27.90966093627664
 20
69.08151895628819
 30
0.0
 11
28.01630793694774
 21
69.1881659569593
 31
0.0
  0
LINE
  5
76D
330
1F
100
AcDbEntity
  8
0
100
AcDbLine
 10
28.49878170266615
 20
69.6706397226777
 30
0.0
 11
28.54570592110496
 21
69.71756394111651
 31
0.0
  0
LINE
  5
76E
330
1F
100
AcDbEntity
  8
0
100
AcDbLine
 10
28.90188924427705
 20
70.0737472642886
 30
0.0
 11
28.979902368157
 21
70.15176038816855
 31
0.0
  0
LINE
  5
76F
330
1F
100
AcDbEntity
  8
0
100
AcDbLine
 10
27.90216560439244
 20
69.08151895628457
 30
0.0
 11
28.00881260506716
 21
69.1881659569593
 31
0.0
  0
LINE
  5
770
330
1F
100
AcDbEntity
  8
0
100
AcDbLine
 10
28.49595236558199
 20
69.67530571747412
 30
0.0
 11
28.5431674563033
 21
69.72252080819543
 31
0.0
  0
LINE
  5
771
330
1F
100
AcDbEntity
  8
0
100
AcDbLine
 10
28.89913458490831
 20
70.07848793680044
 30
0.0
 11
28.97714770868689
 21
70.15650106057902
 31
0.0
  0
LINE
  5
772
330
1F
100
AcDbEntity
  8
0
100
AcDbLine
 10
27.89467027250822
 20
69.08151895628092
 30
0.0
 11
28.00131727318659
 21
69.1881659569593
 31
0.0
  0
LINE
  5
773
330
1F
100
AcDbEntity
  8
0
100
AcDbLine
 10
28.49312872073281
 20
69.67997740450551
 30
0.0
 11
28.54069374999925
 21
69.72754243377196
 31
0.0
  0
LINE
  5
774
330
1F
100
AcDbEntity
  8
0
100
AcDbLine
 10
28.89637992553957
 20
70.08322860931229
 30
0.0
 11
28.97439304921677
 21
70.16124173298948
 31
0.0
  0
LINE
  5
775
330
1F
100
AcDbEntity
  8
0
100
AcDbLine
 10
27.88717494062401
 20
69.08151895627729
 30
0.0
 11
27.99382194130601
 21
69.1881659569593
 31
0.0
  0
LINE
  5
776
330
1F
100
AcDbEntity
  8
0
100
AcDbLine
 10
28.49032579549178
 20
69.68466981114506
 30
0.0
 11
28.5382524333158
 21
69.73259644896908
 31
0.0
  0
LINE
  5
777
330
1F
100
AcDbEntity
  8
0
100
AcDbLine
 10
28.89362526617085
 20
70.08796928182413
 30
0.0
 11
28.97163838974665
 21
70.16598240539993
 31
0.0
  0
LINE
  5
778
330
1F
100
AcDbEntity
  8
0
100
AcDbLine
 10
27.87967960873979
 20
69.08151895627365
 30
0.0
 11
27.98632660942543
 21
69.18816595695928
 31
0.0
  0
LINE
  5
779
330
1F
100
AcDbEntity
  8
0
100
AcDbLine
 10
28.48753972796483
 20
69.68937907549869
 30
0.0
 11
28.53588034261964
 21
69.7377196901535
 31
0.0
  0
LINE
  5
77A
330
1F
100
AcDbEntity
  8
0
100
AcDbLine
 10
28.89087060680211
 20
70.09270995433597
 30
0.0
 11
28.96888373027654
 21
70.1707230778104
 31
0.0
  0
LINE
  5
77B
330
1F
100
AcDbEntity
  8
0
100
AcDbLine
 10
27.87218427685558
 20
69.08151895627002
 30
0.0
 11
27.97883127754486
 21
69.1881659569593
 31
0.0
  0
LINE
  5
77C
330
1F
100
AcDbEntity
  8
0
100
AcDbLine
 10
28.48477154640457
 20
69.694106225819
 30
0.0
 11
28.53355482198844
 21
69.74288950140287
 31
0.0
  0
LINE
  5
77D
330
1F
100
AcDbEntity
  8
0
100
AcDbLine
 10
28.88811594743338
 20
70.09745062684782
 30
0.0
 11
28.96612907080643
 21
70.17546375022087
 31
0.0
  0
LINE
  5
77E
330
1F
100
AcDbEntity
  8
0
100
AcDbLine
 10
27.86468894497137
 20
69.08151895626638
 30
0.0
 11
27.97133594566429
 21
69.1881659569593
 31
0.0
  0
LINE
  5
77F
330
1F
100
AcDbEntity
  8
0
100
AcDbLine
 10
28.4820365182661
 20
69.69886652956112
 30
0.0
 11
28.53130800446959
 21
69.74813801576461
 31
0.0
  0
LINE
  5
780
330
1F
100
AcDbEntity
  8
0
100
AcDbLine
 10
28.88536128806464
 20
70.10219129935966
 30
0.0
 11
28.96337441133631
 21
70.18020442263133
 31
0.0
  0
LINE
  5
781
330
1F
100
AcDbEntity
  8
0
100
AcDbLine
 10
27.85719361308715
 20
69.08151895626274
 30
0.0
 11
27.96384061378371
 21
69.1881659569593
 31
0.0
  0
LINE
  5
782
330
1F
100
AcDbEntity
  8
0
100
AcDbLine
 10
28.47931277902519
 20
69.70363812220079
 30
0.0
 11
28.52911926473377
 21
69.75344460790936
 31
0.0
  0
LINE
  5
783
330
1F
100
AcDbEntity
  8
0
100
AcDbLine
 10
28.88260662869591
 20
70.1069319718715
 30
0.0
 11
28.9606197518662
 21
70.18494509504178
 31
0.0
  0
LINE
  5
784
330
1F
100
AcDbEntity
  8
0
100
AcDbLine
 10
27.84969828120294
 20
69.0815189562591
 30
0.0
 11
27.95634528190313
 21
69.1881659569593
 31
0.0
  0
LINE
  5
785
330
1F
100
AcDbEntity
  8
0
100
AcDbLine
 10
28.47664310373518
 20
69.70846377879134
 30
0.0
 11
28.52702777846551
 21
69.75884845352168
 31
0.0
  0
LINE
  5
786
330
1F
100
AcDbEntity
  8
0
100
AcDbLine
 10
28.87985196932718
 20
70.11167264438335
 30
0.0
 11
28.95786509239608
 21
70.18968576745225
 31
0.0
  0
LINE
  5
787
330
1F
100
AcDbEntity
  8
0
100
AcDbLine
 10
27.84220294931873
 20
69.08151895625547
 30
0.0
 11
27.94884995002255
 21
69.1881659569593
 31
0.0
  0
LINE
  5
788
330
1F
100
AcDbEntity
  8
0
100
AcDbLine
 10
28.47397537634073
 20
69.71329138327748
 30
0.0
 11
28.52499976337818
 21
69.76431577031492
 31
0.0
  0
LINE
  5
789
330
1F
100
AcDbEntity
  8
0
100
AcDbLine
 10
28.87709730995844
 20
70.11641331689519
 30
0.0
 11
28.95511043292597
 21
70.19442643986271
 31
0.0
  0
LINE
  5
78A
330
1F
100
AcDbEntity
  8
0
100
AcDbLine
 10
27.83470761743451
 20
69.08151895625183
 30
0.0
 11
27.94135461814197
 21
69.1881659569593
 31
0.0
  0
LINE
  5
78B
330
1F
100
AcDbEntity
  8
0
100
AcDbLine
 10
28.47138649710773
 20
69.71819783592505
 30
0.0
 11
28.52310227609934
 21
69.76991361491666
 31
0.0
  0
LINE
  5
78C
330
1F
100
AcDbEntity
  8
0
100
AcDbLine
 10
28.87434265058971
 20
70.12115398940703
 30
0.0
 11
28.95235577345585
 21
70.19916711227317
 31
0.0
  0
LINE
  5
78D
330
1F
100
AcDbEntity
  8
0
100
AcDbLine
 10
27.8272122855503
 20
69.0815189562482
 30
0.0
 11
27.93385928626139
 21
69.18816595695928
 31
0.0
  0
LINE
  5
78E
330
1F
100
AcDbEntity
  8
0
100
AcDbLine
 10
28.46879761787471
 20
69.72310428857261
 30
0.0
 11
28.52126269072916
 21
69.77556936142706
 31
0.0
  0
LINE
  5
78F
330
1F
100
AcDbEntity
  8
0
100
AcDbLine
 10
28.87158799122098
 20
70.12589466191888
 30
0.0
 11
28.94960111398574
 21
70.20390778468364
 31
0.0
  0
LINE
  5
790
330
1F
100
AcDbEntity
  8
0
100
AcDbLine
 10
27.81971695366609
 20
69.08151895624457
 30
0.0
 11
27.92636395438082
 21
69.1881659569593
 31
0.0
  0
LINE
  5
791
330
1F
100
AcDbEntity
  8
0
100
AcDbLine
 10
28.4662976796676
 20
69.72809968224607
 30
0.0
 11
28.51960959890475
 21
69.78141160148323
 31
0.0
  0
LINE
  5
792
330
1F
100
AcDbEntity
  8
0
100
AcDbLine
 10
28.86883333185225
 20
70.13063533443072
 30
0.0
 11
28.94684645451562
 21
70.20864845709409
 31
0.0
  0
LINE
  5
793
330
1F
100
AcDbEntity
  8
0
100
AcDbLine
 10
27.81222162178187
 20
69.08151895624093
 30
0.0
 11
27.91886862250024
 21
69.1881659569593
 31
0.0
  0
LINE
  5
794
330
1F
100
AcDbEntity
  8
0
100
AcDbLine
 10
28.46380649900123
 20
69.73310383346028
 30
0.0
 11
28.51800781664848
 21
69.78730515110753
 31
0.0
  0
LINE
  5
795
330
1F
100
AcDbEntity
  8
0
100
AcDbLine
 10
28.86607867248351
 20
70.13537600694256
 30
0.0
 11
28.94409179504551
 21
70.21338912950456
 31
0.0
  0
LINE
  5
796
330
1F
100
AcDbEntity
  8
0
100
AcDbLine
 10
27.80472628989767
 20
69.08151895623729
 30
0.0
 11
27.91137329061967
 21
69.1881659569593
 31
0.0
  0
LINE
  5
797
330
1F
100
AcDbEntity
  8
0
100
AcDbLine
 10
28.46141283155917
 20
69.73820549789879
 30
0.0
 11
28.51664888962197
 21
69.79344155596159
 31
0.0
  0
LINE
  5
798
330
1F
100
AcDbEntity
  8
0
100
AcDbLine
 10
28.86332401311477
 20
70.14011667945441
 30
0.0
 11
28.9413371355754
 21
70.21812980191503
 31
0.0
  0
LINE
  5
799
330
1F
100
AcDbEntity
  8
0
100
AcDbLine
 10
27.79723095801345
 20
69.08151895623365
 30
0.0
 11
27.90387795873909
 21
69.1881659569593
 31
0.0
  0
LINE
  5
79A
330
1F
100
AcDbEntity
  8
0
100
AcDbLine
 10
28.45903811104817
 20
69.74332610926837
 30
0.0
 11
28.51540066635744
 21
69.79968866457764
 31
0.0
  0
LINE
  5
79B
330
1F
100
AcDbEntity
  8
0
100
AcDbLine
 10
28.86056935374604
 20
70.14485735196624
 30
0.0
 11
28.93858247610528
 21
70.22287047432549
 31
0.0
  0
LINE
  5
79C
330
1F
100
AcDbEntity
  8
0
100
AcDbLine
 10
27.78973562612924
 20
69.08151895623001
 30
0.0
 11
27.89638262685851
 21
69.18816595695928
 31
0.0
  0
LINE
  5
79D
330
1F
100
AcDbEntity
  8
0
100
AcDbLine
 10
28.45677493303713
 20
69.74855826313791
 30
0.0
 11
28.51434837705117
 21
69.80613170715195
 31
0.0
  0
LINE
  5
79E
330
1F
100
AcDbEntity
  8
0
100
AcDbLine
 10
28.85781469437731
 20
70.1495980244781
 30
0.0
 11
28.93582781663516
 21
70.22761114673594
 31
0.0
  0
LINE
  5
79F
330
1F
100
AcDbEntity
  8
0
100
AcDbLine
 10
27.78224029424502
 20
69.08151895622638
 30
0.0
 11
27.88888729497794
 21
69.1881659569593
 31
0.0
  0
LINE
  5
7A0
330
1F
100
AcDbEntity
  8
0
100
AcDbLine
 10
28.35170567039866
 20
69.65098433238002
 30
0.0
 11
28.35454031856487
 21
69.65381898054623
 31
0.0
  0
LINE
  5
7A1
330
1F
100
AcDbEntity
  8
0
100
AcDbLine
 10
28.45453778907654
 20
69.7538164510579
 30
0.0
 11
28.51356515967672
 21
69.81284382165808
 31
0.0
  0
LINE
  5
7A2
330
1F
100
AcDbEntity
  8
0
100
AcDbLine
 10
28.85506003500858
 20
70.15433869698994
 30
0.0
 11
28.93307315716505
 21
70.2323518191464
 31
0.0
  0
LINE
  5
7A3
330
1F
100
AcDbEntity
  8
0
100
AcDbLine
 10
27.7747449623608
 20
69.08151895622274
 30
0.0
 11
27.88139196309736
 21
69.1881659569593
 31
0.0
  0
LINE
  5
7A4
330
1F
100
AcDbEntity
  8
0
100
AcDbLine
 10
28.34421033851808
 20
69.65098433238002
 30
0.0
 11
28.35173159618989
 21
69.65850559005182
 31
0.0
  0
LINE
  5
7A5
330
1F
100
AcDbEntity
  8
0
100
AcDbLine
 10
28.45243589382746
 20
69.7592098876894
 30
0.0
 11
28.51296580238393
 21
69.81973979624587
 31
0.0
  0
LINE
  5
7A6
330
1F
100
AcDbEntity
  8
0
100
AcDbLine
 10
28.85230537563984
 20
70.15907936950178
 30
0.0
 11
28.93031849769493
 21
70.23709249155687
 31
0.0
  0
LINE
  5
7A7
330
1F
100
AcDbEntity
  8
0
100
AcDbLine
 10
27.7672496304766
 20
69.08151895621911
 30
0.0
 11
27.87389663121678
 21
69.1881659569593
 31
0.0
  0
LINE
  5
7A8
330
1F
100
AcDbEntity
  8
0
100
AcDbLine
 10
28.33671500663752
 20
69.65098433238003
 30
0.0
 11
28.34892743506161
 21
69.66319676080413
 31
0.0
  0
LINE
  5
7A9
330
1F
100
AcDbEntity
  8
0
100
AcDbLine
 10
28.4503604249571
 20
69.76462975069961
 30
0.0
 11
28.51271512238798
 21
69.82698444813049
 31
0.0
  0
LINE
  5
7AA
330
1F
100
AcDbEntity
  8
0
100
AcDbLine
 10
28.84955071627111
 20
70.16382004201361
 30
0.0
 11
28.92756383822482
 21
70.24183316396733
 31
0.0
  0
LINE
  5
7AB
330
1F
100
AcDbEntity
  8
0
100
AcDbLine
 10
27.75975429859237
 20
69.08151895621546
 30
0.0
 11
27.8664012993362
 21
69.1881659569593
 31
0.0
  0
LINE
  5
7AC
330
1F
100
AcDbEntity
  8
0
100
AcDbLine
 10
28.32921967475693
 20
69.65098433238002
 30
0.0
 11
28.34613091210399
 21
69.66789556972708
 31
0.0
  0
LINE
  5
7AD
330
1F
100
AcDbEntity
  8
0
100
AcDbLine
 10
28.44845944378893
 20
69.77022410141203
 30
0.0
 11
28.51285869096798
 21
69.83462334859107
 31
0.0
  0
LINE
  5
7AE
330
1F
100
AcDbEntity
  8
0
100
AcDbLine
 10
28.84679605690238
 20
70.16856071452547
 30
0.0
 11
28.9248091787547
 21
70.24657383637779
 31
0.0
  0
LINE
  5
7AF
330
1F
100
AcDbEntity
  8
0
100
AcDbLine
 10
27.75225896670817
 20
69.08151895621182
 30
0.0
 11
27.85890596745562
 21
69.18816595695928
 31
0.0
  0
LINE
  5
7B0
330
1F
100
AcDbEntity
  8
0
100
AcDbLine
 10
28.32172434287636
 20
69.65098433238002
 30
0.0
 11
28.34333804655484
 21
69.6725980360585
 31
0.0
  0
LINE
  5
7B1
330
1F
100
AcDbEntity
  8
0
100
AcDbLine
 10
28.44658873032633
 20
69.77584871983
 30
0.0
 11
28.51336400855091
 21
69.84262399805458
 31
0.0
  0
LINE
  5
7B2
330
1F
100
AcDbEntity
  8
0
100
AcDbLine
 10
28.84404139753364
 20
70.17330138703731
 30
0.0
 11
28.92205451928459
 21
70.25131450878825
 31
0.0
  0
LINE
  5
7B3
330
1F
100
AcDbEntity
  8
0
100
AcDbLine
 10
27.74476363482396
 20
69.0815189562082
 30
0.0
 11
27.85141063557505
 21
69.1881659569593
 31
0.0
  0
LINE
  5
7B4
330
1F
100
AcDbEntity
  8
0
100
AcDbLine
 10
28.31422901099578
 20
69.65098433238002
 30
0.0
 11
28.34056611396229
 21
69.67732143534653
 31
0.0
  0
LINE
  5
7B5
330
1F
100
AcDbEntity
  8
0
100
AcDbLine
 10
28.44492513931388
 20
69.78168046069813
 30
0.0
 11
28.51430479626983
 21
69.85106011765407
 31
0.0
  0
LINE
  5
7B6
330
1F
100
AcDbEntity
  8
0
100
AcDbLine
 10
28.84128673816491
 20
70.17804205954916
 30
0.0
 11
28.91929985981448
 21
70.25605518119872
 31
0.0
  0
LINE
  5
7B7
330
1F
100
AcDbEntity
  8
0
100
AcDbLine
 10
27.73726830293975
 20
69.08151895620456
 30
0.0
 11
27.84391530369447
 21
69.1881659569593
 31
0.0
  0
LINE
  5
7B8
330
1F
100
AcDbEntity
  8
0
100
AcDbLine
 10
28.3067336791152
 20
69.65098433238002
 30
0.0
 11
28.33779418136973
 21
69.68204483463455
 31
0.0
  0
LINE
  5
7B9
330
1F
100
AcDbEntity
  8
0
100
AcDbLine
 10
28.44333628214162
 20
69.78758693540644
 30
0.0
 11
28.51576790489169
 21
69.86001855815651
 31
0.0
  0
LINE
  5
7BA
330
1F
100
AcDbEntity
  8
0
100
AcDbLine
 10
28.83853207879618
 20
70.182782732061
 30
0.0
 11
28.91654520034436
 21
70.26079585360918
 31
0.0
  0
LINE
  5
7BB
330
1F
100
AcDbEntity
  8
0
100
AcDbLine
 10
27.72977297105552
 20
69.08151895620091
 30
0.0
 11
27.8364199718139
 21
69.1881659569593
 31
0.0
  0
LINE
  5
7BC
330
1F
100
AcDbEntity
  8
0
100
AcDbLine
 10
28.29923834723462
 20
69.65098433238002
 30
0.0
 11
28.33505719755215
 21
69.68680318269755
 31
0.0
  0
LINE
  5
7BD
330
1F
100
AcDbEntity
  8
0
100
AcDbLine
 10
28.44193403807041
 20
69.79368002321581
 30
0.0
 11
28.51789412083099
 21
69.86964010597639
 31
0.0
  0
LINE
  5
7BE
330
1F
100
AcDbEntity
  8
0
100
AcDbLine
 10
28.83577741942744
 20
70.18752340457283
 30
0.0
 11
28.91379054087426
 21
70.26553652601964
 31
0.0
  0
LINE
  5
7BF
330
1F
100
AcDbEntity
  8
0
100
AcDbLine
 10
27.72227763917131
 20
69.08151895619729
 30
0.0
 11
27.82892463993332
 21
69.1881659569593
 31
0.0
  0
LINE
  5
7C0
330
1F
100
AcDbEntity
  8
0
100
AcDbLine
 10
28.29174301535405
 20
69.65098433238002
 30
0.0
 11
28.33232263691
 21
69.69156395393597
 31
0.0
  0
LINE
  5
7C1
330
1F
100
AcDbEntity
  8
0
100
AcDbLine
 10
28.44071054122544
 20
69.79995185825142
 30
0.0
 11
28.52067543783156
 21
69.87991675485753
 31
0.0
  0
LINE
  5
7C2
330
1F
100
AcDbEntity
  8
0
100
AcDbLine
 10
28.83302276005872
 20
70.19226407708469
 30
0.0
 11
28.91103588140414
 21
70.27027719843011
 31
0.0
  0
LINE
  5
7C3
330
1F
100
AcDbEntity
  8
0
100
AcDbLine
 10
27.7147823072871
 20
69.08151895619365
 30
0.0
 11
27.82142930805274
 21
69.18816595695928
 31
0.0
  0
LINE
  5
7C4
330
1F
100
AcDbEntity
  8
0
100
AcDbLine
 10
28.28424768347347
 20
69.65098433238002
 30
0.0
 11
28.32962558535559
 21
69.69636223426214
 31
0.0
  0
LINE
  5
7C5
330
1F
100
AcDbEntity
  8
0
100
AcDbLine
 10
28.43961692779638
 20
69.80635357670293
 30
0.0
 11
28.52420804156242
 21
69.89094469046897
 31
0.0
  0
LINE
  5
7C6
330
1F
100
AcDbEntity
  8
0
100
AcDbLine
 10
28.83026810068997
 20
70.19700474959653
 30
0.0
 11
28.90828122193401
 21
70.27501787084056
 31
0.0
  0
LINE
  5
7C7
330
1F
100
AcDbEntity
  8
0
100
AcDbLine
 10
27.70728697540289
 20
69.08151895619002
 30
0.0
 11
27.81393397617217
 21
69.1881659569593
 31
0.0
  0
LINE
  5
7C8
330
1F
100
AcDbEntity
  8
0
100
AcDbLine
 10
28.28083825889195
 20
69.65507023967908
 30
0.0
 11
28.32694178371376
 21
69.70117376450088
 31
0.0
  0
LINE
  5
7C9
330
1F
100
AcDbEntity
  8
0
100
AcDbLine
 10
28.43887326704176
 20
69.81310524782889
 30
0.0
 11
28.52865396961917
 21
69.9028859504063
 31
0.0
  0
LINE
  5
7CA
330
1F
100
AcDbEntity
  8
0
100
AcDbLine
 10
28.82751344132125
 20
70.20174542210837
 30
0.0
 11
28.9055265624639
 21
70.27975854325102
 31
0.0
  0
LINE
  5
7CB
330
1F
100
AcDbEntity
  8
0
100
AcDbLine
 10
27.69979164351868
 20
69.08151895618637
 30
0.0
 11
27.80643864429159
 21
69.1881659569593
 31
0.0
  0
LINE
  5
7CC
330
1F
100
AcDbEntity
  8
0
100
AcDbLine
 10
28.2779776229709
 20
69.6597049356386
 30
0.0
 11
28.32429476308746
 21
69.70602207575516
 31
0.0
  0
LINE
  5
7CD
330
1F
100
AcDbEntity
  8
0
100
AcDbLine
 10
28.43832949742171
 20
69.82005681008941
 30
0.0
 11
28.53413775449767
 21
69.91586506716537
 31
0.0
  0
LINE
  5
7CE
330
1F
100
AcDbEntity
  8
0
100
AcDbLine
 10
28.82475878195251
 20
70.20648609462022
 30
0.0
 11
28.90277190299378
 21
70.28449921566148
 31
0.0
  0
LINE
  5
7CF
330
1F
100
AcDbEntity
  8
0
100
AcDbLine
 10
27.69229631163446
 20
69.08151895618273
 30
0.0
 11
27.79894331241102
 21
69.1881659569593
 31
0.0
  0
LINE
  5
7D0
330
1F
100
AcDbEntity
  8
0
100
AcDbLine
 10
28.27512490796365
 20
69.66434755251193
 30
0.0
 11
28.32167595284914
 21
69.71089859739742
 31
0.0
  0
LINE
  5
7D1
330
1F
100
AcDbEntity
  8
0
100
AcDbLine
 10
28.43804299162219
 20
69.82726563617047
 30
0.0
 11
28.54069390283122
 21
69.92991654737949
 31
0.0
  0
LINE
  5
7D2
330
1F
100
AcDbEntity
  8
0
100
AcDbLine
 10
28.82200412258378
 20
70.21122676713206
 30
0.0
 11
28.90001724352367
 21
70.28923988807196
 31
0.0
  0
LINE
  5
7D3
330
1F
100
AcDbEntity
  8
0
100
AcDbLine
 10
27.68480097975025
 20
69.08151895617911
 30
0.0
 11
27.79144798053044
 21
69.1881659569593
 31
0.0
  0
LINE
  5
7D4
330
1F
100
AcDbEntity
  8
0
100
AcDbLine
 10
28.27227653811117
 20
69.66899451454002
 30
0.0
 11
28.31909103792472
 21
69.71580901435358
 31
0.0
  0
LINE
  5
7D5
330
1F
100
AcDbEntity
  8
0
100
AcDbLine
 10
28.43826408634827
 20
69.83498206277713
 30
0.0
 11
28.5484326476895
 21
69.94515062411836
 31
0.0
  0
LINE
  5
7D6
330
1F
100
AcDbEntity
  8
0
100
AcDbLine
 10
28.81924946321505
 20
70.2159674396439
 30
0.0
 11
28.89726258405356
 21
70.29398056048241
 31
0.0
  0
LINE
  5
7D7
330
1F
100
AcDbEntity
  8
0
100
AcDbLine
 10
27.67730564786603
 20
69.08151895617546
 30
0.0
 11
27.78395264864986
 21
69.1881659569593
 31
0.0
  0
LINE
  5
7D8
330
1F
100
AcDbEntity
  8
0
100
AcDbLine
 10
28.26943844739948
 20
69.6736517557089
 30
0.0
 11
28.31655257312307
 21
69.7207658814325
 31
0.0
  0
LINE
  5
7D9
330
1F
100
AcDbEntity
  8
0
100
AcDbLine
 10
28.43886026823422
 20
69.84307357654366
 30
0.0
 11
28.55746216957439
 21
69.96167547788383
 31
0.0
  0
LINE
  5
7DA
330
1F
100
AcDbEntity
  8
0
100
AcDbLine
 10
28.8164948038463
 20
70.22070811215573
 30
0.0
 11
28.89450792458344
 21
70.29872123289287
 31
0.0
  0
LINE
  5
7DB
330
1F
100
AcDbEntity
  8
0
100
AcDbLine
 10
27.66981031598182
 20
69.08151895617183
 30
0.0
 11
27.77645731676928
 21
69.1881659569593
 31
0.0
  0
LINE
  5
7DC
330
1F
100
AcDbEntity
  8
0
100
AcDbLine
 10
28.26661480255077
 20
69.67832344274078
 30
0.0
 11
28.31404447254742
 21
69.72575311273744
 31
0.0
  0
LINE
  5
7DD
330
1F
100
AcDbEntity
  8
0
100
AcDbLine
 10
28.43990429121852
 20
69.85161293140852
 30
0.0
 11
28.56758415916103
 21
69.97929279935104
 31
0.0
  0
LINE
  5
7DE
330
1F
100
AcDbEntity
  8
0
100
AcDbLine
 10
28.81374014447758
 20
70.22544878466759
 30
0.0
 11
28.89175326511333
 21
70.30346190530334
 31
0.0
  0
LINE
  5
7DF
330
1F
100
AcDbEntity
  8
0
100
AcDbLine
 10
27.66231498409761
 20
69.0815189561682
 30
0.0
 11
27.7689619848887
 21
69.18816595695928
 31
0.0
  0
LINE
  5
7E0
330
1F
100
AcDbEntity
  8
0
100
AcDbLine
 10
28.26379857345372
 20
69.68300254552432
 30
0.0
 11
28.31160315586397
 21
69.73080712793455
 31
0.0
  0
LINE
  5
7E1
330
1F
100
AcDbEntity
  8
0
100
AcDbLine
 10
28.44147824376689
 20
69.86068221583747
 30
0.0
 11
28.57849151229106
 21
69.99769548436164
 31
0.0
  0
LINE
  5
7E2
330
1F
100
AcDbEntity
  8
0
100
AcDbLine
 10
28.81098548510884
 20
70.23018945717943
 30
0.0
 11
28.88899860564322
 21
70.30820257771381
 31
0.0
  0
LINE
  5
7E3
330
1F
100
AcDbEntity
  8
0
100
AcDbLine
 10
27.65481965221339
 20
69.08151895616456
 30
0.0
 11
27.76146665300813
 21
69.1881659569593
 31
0.0
  0
LINE
  5
7E4
330
1F
100
AcDbEntity
  8
0
100
AcDbLine
 10
28.26101250592717
 20
69.68771180987834
 30
0.0
 11
28.30919006879088
 21
69.73588937274205
 31
0.0
  0
LINE
  5
7E5
330
1F
100
AcDbEntity
  8
0
100
AcDbLine
 10
28.44367326313339
 20
69.87037256708456
 30
0.0
 11
28.58970214683728
 21
70.01640145078844
 31
0.0
  0
LINE
  5
7E6
330
1F
100
AcDbEntity
  8
0
100
AcDbLine
 10
28.80823082574012
 20
70.23493012969128
 30
0.0
 11
28.88624394617311
 21
70.31294325012426
 31
0.0
  0
LINE
  5
7E7
330
1F
100
AcDbEntity
  8
0
100
AcDbLine
 10
27.64732432032918
 20
69.08151895616092
 30
0.0
 11
27.75397132112755
 21
69.1881659569593
 31
0.0
  0
LINE
  5
7E8
330
1F
100
AcDbEntity
  8
0
100
AcDbLine
 10
28.25822643840063
 20
69.69242107423237
 30
0.0
 11
28.30686454815967
 21
69.74105918399141
 31
0.0
  0
LINE
  5
7E9
330
1F
100
AcDbEntity
  8
0
100
AcDbLine
 10
28.44658781245191
 20
69.88078244828364
 30
0.0
 11
28.60057487874756
 21
70.0347695145793
 31
0.0
  0
LINE
  5
7EA
330
1F
100
AcDbEntity
  8
0
100
AcDbLine
 10
28.80547616637138
 20
70.23967080220312
 30
0.0
 11
28.88348928670298
 21
70.31768392253471
 31
0.0
  0
LINE
  5
7EB
330
1F
100
AcDbEntity
  8
0
100
AcDbLine
 10
27.63982898844497
 20
69.08151895615728
 30
0.0
 11
27.74647598924698
 21
69.1881659569593
 31
0.0
  0
LINE
  5
7EC
330
1F
100
AcDbEntity
  8
0
100
AcDbLine
 10
28.25549122626945
 20
69.69718119398176
 30
0.0
 11
28.30456930480046
 21
69.74625927251277
 31
0.0
  0
LINE
  5
7ED
330
1F
100
AcDbEntity
  8
0
100
AcDbLine
 10
28.45032430474277
 20
69.89201427245509
 30
0.0
 11
28.61062367073307
 21
70.05231363844538
 31
0.0
  0
LINE
  5
7EE
330
1F
100
AcDbEntity
  8
0
100
AcDbLine
 10
28.80272150700265
 20
70.24441147471497
 30
0.0
 11
28.88073462723286
 21
70.32242459494518
 31
0.0
  0
LINE
  5
7EF
330
1F
100
AcDbEntity
  8
0
100
AcDbLine
 10
27.63233365656076
 20
69.08151895615366
 30
0.0
 11
27.7389806573664
 21
69.1881659569593
 31
0.0
  0
LINE
  5
7F0
330
1F
100
AcDbEntity
  8
0
100
AcDbLine
 10
28.25275619813133
 20
69.70194149772422
 30
0.0
 11
28.30238056506462
 21
69.75156586465752
 31
0.0
  0
LINE
  5
7F1
330
1F
100
AcDbEntity
  8
0
100
AcDbLine
 10
28.45498351036938
 20
69.90416880996227
 30
0.0
 11
28.61960653559537
 21
70.06879183518826
 31
0.0
  0
LINE
  5
7F2
330
1F
100
AcDbEntity
  8
0
100
AcDbLine
 10
28.79996684763391
 20
70.24915214722681
 30
0.0
 11
28.87797996776275
 21
70.32716526735564
 31
0.0
  0
LINE
  5
7F3
330
1F
100
AcDbEntity
  8
0
100
AcDbLine
 10
27.62483832467654
 20
69.08151895615
 30
0.0
 11
27.73148532548582
 21
69.18816595695928
 31
0.0
  0
LINE
  5
7F4
330
1F
100
AcDbEntity
  8
0
100
AcDbLine
 10
28.25007467424914
 20
69.70675530572261
 30
0.0
 11
28.30023217592151
 21
69.75691280739498
 31
0.0
  0
LINE
  5
7F5
330
1F
100
AcDbEntity
  8
0
100
AcDbLine
 10
28.46065622842628
 20
69.91733685989975
 30
0.0
 11
28.62724151074125
 21
70.08392214221472
 31
0.0
  0
LINE
  5
7F6
330
1F
100
AcDbEntity
  8
0
100
AcDbLine
 10
28.79721218826517
 20
70.25389281973864
 30
0.0
 11
28.87522530829264
 21
70.33190593976612
 31
0.0
  0
LINE
  5
7F7
330
1F
100
AcDbEntity
  8
0
100
AcDbLine
 10
27.61734299279232
 20
69.08151895614637
 30
0.0
 11
27.72398999360525
 21
69.1881659569593
 31
0.0
  0
LINE
  5
7F8
330
1F
100
AcDbEntity
  8
0
100
AcDbLine
 10
28.24740499895941
 20
69.71158096231346
 30
0.0
 11
28.29820416083417
 21
69.76238012418823
 31
0.0
  0
LINE
  5
7F9
330
1F
100
AcDbEntity
  8
0
100
AcDbLine
 10
28.46741193577739
 20
69.93158789913144
 30
0.0
 11
28.63374392172634
 21
70.09791988508039
 31
0.0
  0
LINE
  5
7FA
330
1F
100
AcDbEntity
  8
0
100
AcDbLine
 10
28.79445752889645
 20
70.2586334922505
 30
0.0
 11
28.87247064882252
 21
70.33664661217657
 31
0.0
  0
LINE
  5
7FB
330
1F
100
AcDbEntity
  8
0
100
AcDbLine
 10
27.60984766090811
 20
69.08151895614274
 30
0.0
 11
27.71649466172466
 21
69.1881659569593
 31
0.0
  0
LINE
  5
7FC
330
1F
100
AcDbEntity
  8
0
100
AcDbLine
 10
28.24478946262628
 20
69.7164607578609
 30
0.0
 11
28.2962399619917
 21
69.76791125722632
 31
0.0
  0
LINE
  5
7FD
330
1F
100
AcDbEntity
  8
0
100
AcDbLine
 10
28.4755299306936
 20
69.94720122592823
 30
0.0
 11
28.639174515175
 21
70.11084581040963
 31
0.0
  0
LINE
  5
7FE
330
1F
100
AcDbEntity
  8
0
100
AcDbLine
 10
28.79170286952771
 20
70.26337416476234
 30
0.0
 11
28.86971598935241
 21
70.34138728458703
 31
0.0
  0
LINE
  5
7FF
330
1F
100
AcDbEntity
  8
0
100
AcDbLine
 10
27.6023523290239
 20
69.0815189561391
 30
0.0
 11
27.70899932984409
 21
69.1881659569593
 31
0.0
  0
LINE
  5
800
330
1F
100
AcDbEntity
  8
0
100
AcDbLine
 10
28.2422005833935
 20
69.7213672105087
 30
0.0
 11
28.29440037662152
 21
69.77356700373672
 31
0.0
  0
LINE
  5
801
330
1F
100
AcDbEntity
  8
0
100
AcDbLine
 10
28.48477569521151
 20
69.96394232232672
 30
0.0
 11
28.64351924312619
 21
70.1226858702414
 31
0.0
  0
LINE
  5
802
330
1F
100
AcDbEntity
  8
0
100
AcDbLine
 10
28.78894821015898
 20
70.26811483727418
 30
0.0
 11
28.8669613298823
 21
70.3461279569975
 31
0.0
  0
LINE
  5
803
330
1F
100
AcDbEntity
  8
0
100
AcDbLine
 10
27.59485699713969
 20
69.08151895613547
 30
0.0
 11
27.70150399796351
 21
69.1881659569593
 31
0.0
  0
LINE
  5
804
330
1F
100
AcDbEntity
  8
0
100
AcDbLine
 10
28.23966605603452
 20
69.72632801503029
 30
0.0
 11
28.29266905921182
 21
69.7793310182076
 31
0.0
  0
LINE
  5
805
330
1F
100
AcDbEntity
  8
0
100
AcDbLine
 10
28.49516577343146
 20
69.98182773242723
 30
0.0
 11
28.64700495429914
 21
70.13366691329492
 31
0.0
  0
LINE
  5
806
330
1F
100
AcDbEntity
  8
0
100
AcDbLine
 10
28.78619355079025
 20
70.27285550978603
 30
0.0
 11
28.86420667041219
 21
70.35086862940797
 31
0.0
  0
LINE
  5
807
330
1F
100
AcDbEntity
  8
0
100
AcDbLine
 10
27.58736166525548
 20
69.08151895613183
 30
0.0
 11
27.69400866608294
 21
69.1881659569593
 31
0.0
  0
LINE
  5
808
330
1F
100
AcDbEntity
  8
0
100
AcDbLine
 10
28.23717487536834
 20
69.73133216624468
 30
0.0
 11
28.29105042541449
 21
69.78520771629084
 31
0.0
  0
LINE
  5
809
330
1F
100
AcDbEntity
  8
0
100
AcDbLine
 10
28.5062301805319
 20
70.00038747140825
 30
0.0
 11
28.64974224439792
 21
70.14389953527427
 31
0.0
  0
LINE
  5
80A
330
1F
100
AcDbEntity
  8
0
100
AcDbLine
 10
28.78343889142151
 20
70.27759618229787
 30
0.0
 11
28.86145201094207
 21
70.35560930181842
 31
0.0
  0
LINE
  5
80B
330
1F
100
AcDbEntity
  8
0
100
AcDbLine
 10
27.57986633337127
 20
69.0815189561282
 30
0.0
 11
27.68651333420236
 21
69.1881659569593
 31
0.0
  0
LINE
  5
80C
330
1F
100
AcDbEntity
  8
0
100
AcDbLine
 10
28.23473997643078
 20
69.73639259918771
 30
0.0
 11
28.28961640347265
 21
69.79126902622959
 31
0.0
  0
LINE
  5
80D
330
1F
100
AcDbEntity
  8
0
100
AcDbLine
 10
28.51743507267351
 20
70.01908769543044
 30
0.0
 11
28.65182739993577
 21
70.1534800226927
 31
0.0
  0
LINE
  5
80E
330
1F
100
AcDbEntity
  8
0
100
AcDbLine
 10
28.78068423205278
 20
70.28233685480971
 30
0.0
 11
28.85869735147195
 21
70.36034997422888
 31
0.0
  0
LINE
  5
80F
330
1F
100
AcDbEntity
  8
0
100
AcDbLine
 10
27.57237100148705
 20
69.08151895612455
 30
0.0
 11
27.67901800232178
 21
69.1881659569593
 31
0.0
  0
LINE
  5
810
330
1F
100
AcDbEntity
  8
0
100
AcDbLine
 10
28.23236525591992
 20
69.74151321055743
 30
0.0
 11
28.28825961834168
 21
69.79740757297918
 31
0.0
  0
LINE
  5
811
330
1F
100
AcDbEntity
  8
0
100
AcDbLine
 10
28.52821923579868
 20
70.03736719043619
 30
0.0
 11
28.65329050855803
 21
70.16243846319554
 31
0.0
  0
LINE
  5
812
330
1F
100
AcDbEntity
  8
0
100
AcDbLine
 10
28.77792957268404
 20
70.28707752732156
 30
0.0
 11
28.85594269200184
 21
70.36509064663935
 31
0.0
  0
LINE
  5
813
330
1F
100
AcDbEntity
  8
0
100
AcDbLine
 10
27.56487566960283
 20
69.08151895612092
 30
0.0
 11
27.67152267044121
 21
69.1881659569593
 31
0.0
  0
LINE
  5
814
330
1F
100
AcDbEntity
  8
0
100
AcDbLine
 10
28.23005337037533
 20
69.74669665689342
 30
0.0
 11
28.28720732903541
 21
69.8038506155535
 31
0.0
  0
LINE
  5
815
330
1F
100
AcDbEntity
  8
0
100
AcDbLine
 10
28.53804661180563
 20
70.05468989832372
 30
0.0
 11
28.65419319585452
 21
70.17083648237261
 31
0.0
  0
LINE
  5
816
330
1F
100
AcDbEntity
  8
0
100
AcDbLine
 10
28.77517491331531
 20
70.29181819983339
 30
0.0
 11
28.85318803253172
 21
70.36983131904981
 31
0.0
  0
LINE
  5
817
330
1F
100
AcDbEntity
  8
0
100
AcDbLine
 10
27.55738033771862
 20
69.08151895611729
 30
0.0
 11
27.66402733856063
 21
69.1881659569593
 31
0.0
  0
LINE
  5
818
330
1F
100
AcDbEntity
  8
0
100
AcDbLine
 10
28.12684571398135
 20
69.65098433238002
 30
0.0
 11
28.1280211172419
 21
69.65215973564057
 31
0.0
  0
LINE
  5
819
330
1F
100
AcDbEntity
  8
0
100
AcDbLine
 10
28.22781622641482
 20
69.75195484481348
 30
0.0
 11
28.2862950744241
 21
69.81043369282277
 31
0.0
  0
LINE
  5
81A
330
1F
100
AcDbEntity
  8
0
100
AcDbLine
 10
28.54671621441078
 20
70.07085483280945
 30
0.0
 11
28.65466329171293
 21
70.17880191011159
 31
0.0
  0
LINE
  5
81B
330
1F
100
AcDbEntity
  8
0
100
AcDbLine
 10
28.77242025394658
 20
70.29655887234524
 30
0.0
 11
28.85043337306161
 21
70.37457199146027
 31
0.0
  0
LINE
  5
81C
330
1F
100
AcDbEntity
  8
0
100
AcDbLine
 10
27.5498850058344
 20
69.08151895611364
 30
0.0
 11
27.65653200668006
 21
69.1881659569593
 31
0.0
  0
LINE
  5
81D
330
1F
100
AcDbEntity
  8
0
100
AcDbLine
 10
28.11935038210078
 20
69.65098433238002
 30
0.0
 11
28.12521239486692
 21
69.65684634514616
 31
0.0
  0
LINE
  5
81E
330
1F
100
AcDbEntity
  8
0
100
AcDbLine
 10
28.22565709179706
 20
69.7572910420763
 30
0.0
 11
28.28560725641368
 21
69.81724120669291
 31
0.0
  0
LINE
  5
81F
330
1F
100
AcDbEntity
  8
0
100
AcDbLine
 10
28.55414503059436
 20
70.0857789808736
 30
0.0
 11
28.65477498109914
 21
70.18640893137838
 31
0.0
  0
LINE
  5
820
330
1F
100
AcDbEntity
  8
0
100
AcDbLine
 10
28.76966559457785
 20
70.30129954485709
 30
0.0
 11
28.84767871359149
 21
70.37931266387073
 31
0.0
  0
LINE
  5
821
330
1F
100
AcDbEntity
  8
0
100
AcDbLine
 10
27.5423896739502
 20
69.08151895611002
 30
0.0
 11
27.64903667479949
 21
69.18816595695931
 31
0.0
  0
LINE
  5
822
330
1F
100
AcDbEntity
  8
0
100
AcDbLine
 10
28.1118550502202
 20
69.65098433238002
 30
0.0
 11
28.12240391466296
 21
69.66153319682277
 31
0.0
  0
LINE
  5
823
330
1F
100
AcDbEntity
  8
0
100
AcDbLine
 10
28.22358162292676
 20
69.76271090508658
 30
0.0
 11
28.28529027300945
 21
69.82441955516927
 31
0.0
  0
LINE
  5
824
330
1F
100
AcDbEntity
  8
0
100
AcDbLine
 10
28.56044264960954
 20
70.09957193176936
 30
0.0
 11
28.65452430110313
 21
70.19365358326294
 31
0.0
  0
LINE
  5
825
330
1F
100
AcDbEntity
  8
0
100
AcDbLine
 10
28.76691093520911
 20
70.30604021736893
 30
0.0
 11
28.84492405412137
 21
70.38405333628118
 31
0.0
  0
LINE
  5
826
330
1F
100
AcDbEntity
  8
0
100
AcDbLine
 10
27.53489434206599
 20
69.08151895610638
 30
0.0
 11
27.64154134291891
 21
69.1881659569593
 31
0.0
  0
LINE
  5
827
330
1F
100
AcDbEntity
  8
0
100
AcDbLine
 10
28.10435971833963
 20
69.65098433238002
 30
0.0
 11
28.11960739170535
 21
69.66623200574574
 31
0.0
  0
LINE
  5
828
330
1F
100
AcDbEntity
  8
0
100
AcDbLine
 10
28.22161352814318
 20
69.76823814218356
 30
0.0
 11
28.28524997829476
 21
69.83187459233515
 31
0.0
  0
LINE
  5
829
330
1F
100
AcDbEntity
  8
0
100
AcDbLine
 10
28.56553301146704
 20
70.11215762550744
 30
0.0
 11
28.65389810998513
 21
70.20052272402552
 31
0.0
  0
LINE
  5
82A
330
1F
100
AcDbEntity
  8
0
100
AcDbLine
 10
28.76415627584039
 20
70.31078088988077
 30
0.0
 11
28.84216939465127
 21
70.38879400869166
 31
0.0
  0
LINE
  5
82B
330
1F
100
AcDbEntity
  8
0
100
AcDbLine
 10
27.52739901018177
 20
69.08151895610274
 30
0.0
 11
27.63404601103833
 21
69.1881659569593
 31
0.0
  0
LINE
  5
82C
330
1F
100
AcDbEntity
  8
0
100
AcDbLine
 10
28.09686438645905
 20
69.65098433238002
 30
0.0
 11
28.11681086874773
 21
69.67093081466871
 31
0.0
  0
LINE
  5
82D
330
1F
100
AcDbEntity
  8
0
100
AcDbLine
 10
28.21972762460295
 20
69.77384757052391
 30
0.0
 11
28.28555215453777
 21
69.83967210045874
 31
0.0
  0
LINE
  5
82E
330
1F
100
AcDbEntity
  8
0
100
AcDbLine
 10
28.56968931338686
 20
70.12380925930783
 30
0.0
 11
28.65309251945
 21
70.20721246537097
 31
0.0
  0
LINE
  5
82F
330
1F
100
AcDbEntity
  8
0
100
AcDbLine
 10
28.76140161647165
 20
70.31552156239262
 30
0.0
 11
28.83941473518115
 21
70.39353468110212
 31
0.0
  0
LINE
  5
830
330
1F
100
AcDbEntity
  8
0
100
AcDbLine
 10
27.51990367829756
 20
69.0815189560991
 30
0.0
 11
27.62655067915775
 21
69.1881659569593
 31
0.0
  0
LINE
  5
831
330
1F
100
AcDbEntity
  8
0
100
AcDbLine
 10
28.08936905457847
 20
69.65098433238002
 30
0.0
 11
28.11403388760299
 21
69.67564916540454
 31
0.0
  0
LINE
  5
832
330
1F
100
AcDbEntity
  8
0
100
AcDbLine
 10
28.21800051625106
 20
69.77961579405262
 30
0.0
 11
28.28639458598855
 21
69.8480098637901
 31
0.0
  0
LINE
  5
833
330
1F
100
AcDbEntity
  8
0
100
AcDbLine
 10
28.57300798214966
 20
70.1346232599512
 30
0.0
 11
28.65204023014374
 21
70.21365550794529
 31
0.0
  0
LINE
  5
834
330
1F
100
AcDbEntity
  8
0
100
AcDbLine
 10
28.75864695710291
 20
70.32026223490446
 30
0.0
 11
28.83666007571104
 21
70.39827535351259
 31
0.0
  0
LINE
  5
835
330
1F
100
AcDbEntity
  8
0
100
AcDbLine
 10
27.51240834641334
 20
69.08151895609547
 30
0.0
 11
27.61905534727717
 21
69.1881659569593
 31
0.0
  0
LINE
  5
836
330
1F
100
AcDbEntity
  8
0
100
AcDbLine
 10
28.0818737226979
 20
69.65098433238002
 30
0.0
 11
28.11126195501043
 21
69.68037256469255
 31
0.0
  0
LINE
  5
837
330
1F
100
AcDbEntity
  8
0
100
AcDbLine
 10
28.21633692523864
 20
69.78544753492076
 30
0.0
 11
28.28773630664063
 21
69.85684691632275
 31
0.0
  0
LINE
  5
838
330
1F
100
AcDbEntity
  8
0
100
AcDbLine
 10
28.57558853272771
 20
70.14469914240983
 30
0.0
 11
28.65077318384688
 21
70.21988379352901
 31
0.0
  0
LINE
  5
839
330
1F
100
AcDbEntity
  8
0
100
AcDbLine
 10
28.75589229773418
 20
70.3250029074163
 30
0.0
 11
28.83390541624092
 21
70.40301602592304
 31
0.0
  0
LINE
  5
83A
330
1F
100
AcDbEntity
  8
0
100
AcDbLine
 10
27.50491301452913
 20
69.08151895609184
 30
0.0
 11
27.61156001539659
 21
69.1881659569593
 31
0.0
  0
LINE
  5
83B
330
1F
100
AcDbEntity
  8
0
100
AcDbLine
 10
28.07437839081732
 20
69.65098433238002
 30
0.0
 11
28.10851174004605
 21
69.68511768160874
 31
0.0
  0
LINE
  5
83C
330
1F
100
AcDbEntity
  8
0
100
AcDbLine
 10
28.21491688786612
 20
69.79152282942881
 30
0.0
 11
28.28962570665636
 21
69.86623164821906
 31
0.0
  0
LINE
  5
83D
330
1F
100
AcDbEntity
  8
0
100
AcDbLine
 10
28.5775277170575
 20
70.1541336586202
 30
0.0
 11
28.64941425682036
 21
70.22602019838307
 31
0.0
  0
LINE
  5
83E
330
1F
100
AcDbEntity
  8
0
100
AcDbLine
 10
28.75313763836544
 20
70.32974357992813
 30
0.0
 11
28.8311507567708
 21
70.4077566983335
 31
0.0
  0
LINE
  5
83F
330
1F
100
AcDbEntity
  8
0
100
AcDbLine
 10
27.49741768264492
 20
69.08151895608819
 30
0.0
 11
27.60406468351601
 21
69.18816595695928
 31
0.0
  0
LINE
  5
840
330
1F
100
AcDbEntity
  8
0
100
AcDbLine
 10
28.06688305893674
 20
69.65098433238
 30
0.0
 11
28.1057771794039
 21
69.68987845284717
 31
0.0
  0
LINE
  5
841
330
1F
100
AcDbEntity
  8
0
100
AcDbLine
 10
28.21358412358163
 20
69.7976853970249
 30
0.0
 11
28.29215309843721
 21
69.87625437188048
 31
0.0
  0
LINE
  5
842
330
1F
100
AcDbEntity
  8
0
100
AcDbLine
 10
28.57891589086552
 20
70.1630171643088
 30
0.0
 11
28.64779653239969
 21
70.23189780584296
 31
0.0
  0
LINE
  5
843
330
1F
100
AcDbEntity
  8
0
100
AcDbLine
 10
28.75038297899671
 20
70.33448425243999
 30
0.0
 11
28.82839609730069
 21
70.41249737074396
 31
0.0
  0
LINE
  5
844
330
1F
100
AcDbEntity
  8
0
100
AcDbLine
 10
27.48992235076071
 20
69.08151895608457
 30
0.0
 11
27.59656935163544
 21
69.1881659569593
 31
0.0
  0
LINE
  5
845
330
1F
100
AcDbEntity
  8
0
100
AcDbLine
 10
28.05938772705617
 20
69.65098433238002
 30
0.0
 11
28.10306215715817
 21
69.69465876248202
 31
0.0
  0
LINE
  5
846
330
1F
100
AcDbEntity
  8
0
100
AcDbLine
 10
28.21249051015257
 20
69.80408711547643
 30
0.0
 11
28.29541524927136
 21
69.88701185459522
 31
0.0
  0
LINE
  5
847
330
1F
100
AcDbEntity
  8
0
100
AcDbLine
 10
28.57975498596978
 20
70.17135159129363
 30
0.0
 11
28.6461298774083
 21
70.23772648273216
 31
0.0
  0
LINE
  5
848
330
1F
100
AcDbEntity
  8
0
100
AcDbLine
 10
28.74762831962798
 20
70.33922492495184
 30
0.0
 11
28.82564143783056
 21
70.41723804315441
 31
0.0
  0
LINE
  5
849
330
1F
100
AcDbEntity
  8
0
100
AcDbLine
 10
27.48242701887649
 20
69.08151895608091
 30
0.0
 11
27.58907401975487
 21
69.1881659569593
 31
0.0
  0
LINE
  5
84A
330
1F
100
AcDbEntity
  8
0
100
AcDbLine
 10
28.05433743701637
 20
69.6534293742208
 30
0.0
 11
28.10037835551635
 21
69.69947029272078
 31
0.0
  0
LINE
  5
84B
330
1F
100
AcDbEntity
  8
0
100
AcDbLine
 10
28.21161694540002
 20
69.81070888260446
 30
0.0
 11
28.29951176347733
 21
69.89860370068176
 31
0.0
  0
LINE
  5
84C
330
1F
100
AcDbEntity
  8
0
100
AcDbLine
 10
28.58010107731578
 20
70.17919301452021
 30
0.0
 11
28.64429029203814
 21
70.24338222924257
 31
0.0
  0
LINE
  5
84D
330
1F
100
AcDbEntity
  8
0
100
AcDbLine
 10
28.74487366025926
 20
70.34396559746368
 30
0.0
 11
28.82288677836046
 21
70.42197871556489
 31
0.0
  0
LINE
  5
84E
330
1F
100
AcDbEntity
  8
0
100
AcDbLine
 10
27.47493168699228
 20
69.08151895607729
 30
0.0
 11
27.58157868787429
 21
69.1881659569593
 31
0.0
  0
LINE
  5
84F
330
1F
100
AcDbEntity
  8
0
100
AcDbLine
 10
28.05147680109775
 20
69.65806407018276
 30
0.0
 11
28.09770832536577
 21
69.70429559445077
 31
0.0
  0
LINE
  5
850
330
1F
100
AcDbEntity
  8
0
100
AcDbLine
 10
28.21091733179291
 20
69.81750460087792
 30
0.0
 11
28.30453924621053
 21
69.91112651529554
 31
0.0
  0
LINE
  5
851
330
1F
100
AcDbEntity
  8
0
100
AcDbLine
 10
28.5801008002245
 20
70.18668806930951
 30
0.0
 11
28.64238123795447
 21
70.24896850703948
 31
0.0
  0
LINE
  5
852
330
1F
100
AcDbEntity
  8
0
100
AcDbLine
 10
28.74211900089051
 20
70.34870626997551
 30
0.0
 11
28.82013211889034
 21
70.42671938797535
 31
0.0
  0
LINE
  5
853
330
1F
100
AcDbEntity
  8
0
100
AcDbLine
 10
27.46743635510807
 20
69.08151895607365
 30
0.0
 11
27.57408335599372
 21
69.1881659569593
 31
0.0
  0
LINE
  5
854
330
1F
100
AcDbEntity
  8
0
100
AcDbLine
 10
28.04861974341922
 20
69.6627023443848
 30
0.0
 11
28.09508951512743
 21
69.70917211609301
 31
0.0
  0
LINE
  5
855
330
1F
100
AcDbEntity
  8
0
100
AcDbLine
 10
28.21063082599339
 20
69.82471342695898
 30
0.0
 11
28.31070072690063
 21
69.92478332786622
 31
0.0
  0
LINE
  5
856
330
1F
100
AcDbEntity
  8
0
100
AcDbLine
 10
28.57981757156222
 20
70.1939001725278
 30
0.0
 11
28.64035322286714
 21
70.25443582383272
 31
0.0
  0
LINE
  5
857
330
1F
100
AcDbEntity
  8
0
100
AcDbLine
 10
28.73936434152178
 20
70.35344694248737
 30
0.0
 11
28.81737745942023
 21
70.43146006038582
 31
0.0
  0
LINE
  5
858
330
1F
100
AcDbEntity
  8
0
100
AcDbLine
 10
27.45994102322386
 20
69.08151895607001
 30
0.0
 11
27.56658802411313
 21
69.18816595695928
 31
0.0
  0
LINE
  5
859
330
1F
100
AcDbEntity
  8
0
100
AcDbLine
 10
28.04577137356627
 20
69.66734930641243
 30
0.0
 11
28.09247615474445
 21
69.71405408759061
 31
0.0
  0
LINE
  5
85A
330
1F
100
AcDbEntity
  8
0
100
AcDbLine
 10
28.21066672416605
 20
69.83224465701221
 30
0.0
 11
28.31806167207
 21
69.93963960491615
 31
0.0
  0
LINE
  5
85B
330
1F
100
AcDbEntity
  8
0
100
AcDbLine
 10
28.57912840490369
 20
70.20070633774985
 30
0.0
 11
28.63825187047656
 21
70.25982980332272
 31
0.0
  0
LINE
  5
85C
330
1F
100
AcDbEntity
  8
0
100
AcDbLine
 10
28.73660968215304
 20
70.35818761499921
 30
0.0
 11
28.81462279995012
 21
70.43620073279628
 31
0.0
  0
LINE
  5
85D
330
1F
100
AcDbEntity
  8
0
100
AcDbLine
 10
27.45244569133964
 20
69.08151895606638
 30
0.0
 11
27.55909269223256
 21
69.1881659569593
 31
0.0
  0
LINE
  5
85E
330
1F
100
AcDbEntity
  8
0
100
AcDbLine
 10
28.042924529226
 20
69.67199779395274
 30
0.0
 11
28.08993768994278
 21
69.71901095466951
 31
0.0
  0
LINE
  5
85F
330
1F
100
AcDbEntity
  8
0
100
AcDbLine
 10
28.21105825726043
 20
69.84013152198716
 30
0.0
 11
28.32660140724873
 21
69.95567467197547
 31
0.0
  0
LINE
  5
860
330
1F
100
AcDbEntity
  8
0
100
AcDbLine
 10
28.57824478858905
 20
70.20731805331579
 30
0.0
 11
28.63606313074073
 21
70.26513639546747
 31
0.0
  0
LINE
  5
861
330
1F
100
AcDbEntity
  8
0
100
AcDbLine
 10
28.73385502278431
 20
70.36292828751105
 30
0.0
 11
28.81186814048
 21
70.44094140520674
 31
0.0
  0
LINE
  5
862
330
1F
100
AcDbEntity
  8
0
100
AcDbLine
 10
27.44495035945543
 20
69.08151895606274
 30
0.0
 11
27.55159736035197
 21
69.1881659569593
 31
0.0
  0
LINE
  5
863
330
1F
100
AcDbEntity
  8
0
100
AcDbLine
 10
28.04010088437688
 20
69.6766694809842
 30
0.0
 11
28.08739922514111
 21
69.72396782174842
 31
0.0
  0
LINE
  5
864
330
1F
100
AcDbEntity
  8
0
100
AcDbLine
 10
28.21188087424901
 20
69.84844947085632
 30
0.0
 11
28.33636672445932
 21
69.97293532106664
 31
0.0
  0
LINE
  5
865
330
1F
100
AcDbEntity
  8
0
100
AcDbLine
 10
28.5771916040665
 20
70.21376020067382
 30
0.0
 11
28.63380791689277
 21
70.27037651350008
 31
0.0
  0
LINE
  5
866
330
1F
100
AcDbEntity
  8
0
100
AcDbLine
 10
28.73110036341559
 20
70.3676689600229
 30
0.0
 11
28.80911348100988
 21
70.4456820776172
 31
0.0
  0
LINE
  5
867
330
1F
100
AcDbEntity
  8
0
100
AcDbLine
 10
27.43745502757121
 20
69.0815189560591
 30
0.0
 11
27.54410202847139
 21
69.18816595695928
 31
0.0
  0
LINE
  5
868
330
1F
100
AcDbEntity
  8
0
100
AcDbLine
 10
28.03727723952776
 20
69.68134116801565
 30
0.0
 11
28.08495387841203
 21
69.72901780689992
 31
0.0
  0
LINE
  5
869
330
1F
100
AcDbEntity
  8
0
100
AcDbLine
 10
28.21332087447796
 20
69.85738480296585
 30
0.0
 11
28.34705963209056
 21
69.99112356057844
 31
0.0
  0
LINE
  5
86A
330
1F
100
AcDbEntity
  8
0
100
AcDbLine
 10
28.57585929237595
 20
70.21992322086385
 30
0.0
 11
28.63148239626157
 21
70.27554632474947
 31
0.0
  0
LINE
  5
86B
330
1F
100
AcDbEntity
  8
0
100
AcDbLine
 10
28.72834570404684
 20
70.37240963253473
 30
0.0
 11
28.80635882153977
 21
70.45042275002766
 31
0.0
  0
LINE
  5
86C
330
1F
100
AcDbEntity
  8
0
100
AcDbLine
 10
27.429959695687
 20
69.08151895605546
 30
0.0
 11
27.53660669659082
 21
69.1881659569593
 31
0.0
  0
LINE
  5
86D
330
1F
100
AcDbEntity
  8
0
100
AcDbLine
 10
28.03448528389598
 20
69.68604454426445
 30
0.0
 11
28.08251256172855
 21
69.73407182209702
 31
0.0
  0
LINE
  5
86E
330
1F
100
AcDbEntity
  8
0
100
AcDbLine
 10
28.21533023581607
 20
69.86688949618454
 30
0.0
 11
28.35821953933708
 21
70.00977879970554
 31
0.0
  0
LINE
  5
86F
330
1F
100
AcDbEntity
  8
0
100
AcDbLine
 10
28.57444601093185
 20
70.22600527130031
 30
0.0
 11
28.62910319739608
 21
70.28066245776455
 31
0.0
  0
LINE
  5
870
330
1F
100
AcDbEntity
  8
0
100
AcDbLine
 10
28.72559104467812
 20
70.3771503050466
 30
0.0
 11
28.80360416206966
 21
70.45516342243813
 31
0.0
  0
LINE
  5
871
330
1F
100
AcDbEntity
  8
0
100
AcDbLine
 10
27.42246436380279
 20
69.08151895605184
 30
0.0
 11
27.52911136471025
 21
69.1881659569593
 31
0.0
  0
LINE
  5
872
330
1F
100
AcDbEntity
  8
0
100
AcDbLine
 10
28.03169921636909
 20
69.69075380861814
 30
0.0
 11
28.08017427433075
 21
69.7392288665798
 31
0.0
  0
LINE
  5
873
330
1F
100
AcDbEntity
  8
0
100
AcDbLine
 10
28.21799218169998
 20
69.87704677394902
 30
0.0
 11
28.36929194916945
 21
70.0283465414185
 31
0.0
  0
LINE
  5
874
330
1F
100
AcDbEntity
  8
0
100
AcDbLine
 10
28.57282712256311
 20
70.23188171481215
 30
0.0
 11
28.62666188071262
 21
70.28571647296167
 31
0.0
  0
LINE
  5
875
330
1F
100
AcDbEntity
  8
0
100
AcDbLine
 10
28.72283638530938
 20
70.38189097755843
 30
0.0
 11
28.80084950259954
 21
70.45990409484858
 31
0.0
  0
LINE
  5
876
330
1F
100
AcDbEntity
  8
0
100
AcDbLine
 10
27.41496903191857
 20
69.0815189560482
 30
0.0
 11
27.52161603282967
 21
69.1881659569593
 31
0.0
  0
LINE
  5
877
330
1F
100
AcDbEntity
  8
0
100
AcDbLine
 10
28.02894593427779
 20
69.69549585840741
 30
0.0
 11
28.07784875369951
 21
69.74439867782912
 31
0.0
  0
LINE
  5
878
330
1F
100
AcDbEntity
  8
0
100
AcDbLine
 10
28.22140410473417
 20
69.8879540288638
 30
0.0
 11
28.37968548975957
 21
70.04623541388919
 31
0.0
  0
LINE
  5
879
330
1F
100
AcDbEntity
  8
0
100
AcDbLine
 10
28.57111370202941
 20
70.23766362615903
 30
0.0
 11
28.62418221094729
 21
70.29073213507691
 31
0.0
  0
LINE
  5
87A
330
1F
100
AcDbEntity
  8
0
100
AcDbLine
 10
28.72008172594065
 20
70.38663165007027
 30
0.0
 11
28.79809484312942
 21
70.46464476725905
 31
0.0
  0
LINE
  5
87B
330
1F
100
AcDbEntity
  8
0
100
AcDbLine
 10
27.40747370003436
 20
69.08151895604455
 30
0.0
 11
27.5141207009491
 21
69.1881659569593
 31
0.0
  0
LINE
  5
87C
330
1F
100
AcDbEntity
  8
0
100
AcDbLine
 10
28.02621090613938
 20
69.70025616214957
 30
0.0
 11
28.07564186539523
 21
69.74968712140543
 31
0.0
  0
LINE
  5
87D
330
1F
100
AcDbEntity
  8
0
100
AcDbLine
 10
28.22566578141079
 20
69.89971103742099
 30
0.0
 11
28.38901486770259
 21
70.06306012371279
 31
0.0
  0
LINE
  5
87E
330
1F
100
AcDbEntity
  8
0
100
AcDbLine
 10
28.56927408354549
 20
70.24331933955568
 30
0.0
 11
28.62164374614563
 21
70.29568900215583
 31
0.0
  0
LINE
  5
87F
330
1F
100
AcDbEntity
  8
0
100
AcDbLine
 10
28.71732706657192
 20
70.39137232258211
 30
0.0
 11
28.79534018365931
 21
70.46938543966951
 31
0.0
  0
LINE
  5
880
330
1F
100
AcDbEntity
  8
0
100
AcDbLine
 10
27.39997836815015
 20
69.08151895604092
 30
0.0
 11
27.50662536906852
 21
69.1881659569593
 31
0.0
  0
LINE
  5
881
330
1F
100
AcDbEntity
  8
0
100
AcDbLine
 10
28.02350624476684
 20
69.70504683265762
 30
0.0
 11
28.07345312565936
 21
69.75499371355014
 31
0.0
  0
LINE
  5
882
330
1F
100
AcDbEntity
  8
0
100
AcDbLine
 10
28.23096805224101
 20
69.91250864013179
 30
0.0
 11
28.3971962353094
 21
70.07873682320017
 31
0.0
  0
LINE
  5
883
330
1F
100
AcDbEntity
  8
0
100
AcDbLine
 10
28.56732534988646
 20
70.24886593777724
 30
0.0
 11
28.61908234465526
 21
70.30062293254603
 31
0.0
  0
LINE
  5
884
330
1F
100
AcDbEntity
  8
0
100
AcDbLine
 10
28.71457240720318
 20
70.39611299509396
 30
0.0
 11
28.7925855241892
 21
70.47412611207997
 31
0.0
  0
LINE
  5
885
330
1F
100
AcDbEntity
  8
0
100
AcDbLine
 10
27.39248303626594
 20
69.08151895603729
 30
0.0
 11
27.49913003718794
 21
69.1881659569593
 31
0.0
  0
LINE
  5
886
330
1F
100
AcDbEntity
  8
0
100
AcDbLine
 10
28.02083656947688
 20
69.70987248924823
 30
0.0
 11
28.07140855828981
 21
69.76044447806116
 31
0.0
  0
LINE
  5
887
330
1F
100
AcDbEntity
  8
0
100
AcDbLine
 10
28.23741139786279
 20
69.92644731763414
 30
0.0
 11
28.40406067602953
 21
70.09309659580089
 31
0.0
  0
LINE
  5
888
330
1F
100
AcDbEntity
  8
0
100
AcDbLine
 10
28.56529747245478
 20
70.25433339222613
 30
0.0
 11
28.61646353441693
 21
70.30549945418828
 31
0.0
  0
LINE
  5
889
330
1F
100
AcDbEntity
  8
0
100
AcDbLine
 10
28.71181774783446
 20
70.4008536676058
 30
0.0
 11
28.78983086471908
 21
70.47886678449044
 31
0.0
  0
LINE
  5
88A
330
1F
100
AcDbEntity
  8
0
100
AcDbLine
 10
27.38498770438172
 20
69.08151895603365
 30
0.0
 11
27.49163470530736
 21
69.18816595695928
 31
0.0
  0
LINE
  5
88B
330
1F
100
AcDbEntity
  8
0
100
AcDbLine
 10
28.01819242814755
 20
69.71472367979948
 30
0.0
 11
28.06938054320242
 21
69.76591179485435
 31
0.0
  0
LINE
  5
88C
330
1F
100
AcDbEntity
  8
0
100
AcDbLine
 10
28.24497600208987
 20
69.9415072537418
 30
0.0
 11
28.40979805112844
 21
70.10632930278037
 31
0.0
  0
LINE
  5
88D
330
1F
100
AcDbEntity
  8
0
100
AcDbLine
 10
28.5631624396623
 20
70.25969369131423
 30
0.0
 11
28.61383553380152
 21
70.31036678545344
 31
0.0
  0
LINE
  5
88E
330
1F
100
AcDbEntity
  8
0
100
AcDbLine
 10
28.70906308846571
 20
70.40559434011763
 30
0.0
 11
28.78707620524897
 21
70.4836074569009
 31
0.0
  0
LINE
  5
88F
330
1F
100
AcDbEntity
  8
0
100
AcDbLine
 10
27.37770526092097
 20
69.08173184445347
 30
0.0
 11
27.48413937342679
 21
69.1881659569593
 31
0.0
  0
LINE
  5
890
330
1F
100
AcDbEntity
  8
0
100
AcDbLine
 10
28.01560354891458
 20
69.71963013244708
 30
0.0
 11
28.06753806251337
 21
69.77156464604587
 31
0.0
  0
LINE
  5
891
330
1F
100
AcDbEntity
  8
0
100
AcDbLine
 10
28.25387958154829
 20
69.9579061650808
 30
0.0
 11
28.41452803199276
 21
70.11855461552527
 31
0.0
  0
LINE
  5
892
330
1F
100
AcDbEntity
  8
0
100
AcDbLine
 10
28.5609739653963
 20
70.26500054892881
 30
0.0
 11
28.61115173215967
 21
70.31517831569218
 31
0.0
  0
LINE
  5
893
330
1F
100
AcDbEntity
  8
0
100
AcDbLine
 10
28.70630842909698
 20
70.41033501262949
 30
0.0
 11
28.78432154577885
 21
70.48834812931136
 31
0.0
  0
LINE
  5
894
330
1F
100
AcDbEntity
  8
0
100
AcDbLine
 10
27.3705511730812
 20
69.08207308849428
 30
0.0
 11
27.4766440415462
 21
69.1881659569593
 31
0.0
  0
LINE
  5
895
330
1F
100
AcDbEntity
  8
0
100
AcDbLine
 10
28.01303443240329
 20
69.72455634781637
 30
0.0
 11
28.06572851951826
 21
69.77725043493133
 31
0.0
  0
LINE
  5
896
330
1F
100
AcDbEntity
  8
0
100
AcDbLine
 10
28.26386828455338
 20
69.97539019996645
 30
0.0
 11
28.41833958517795
 21
70.12986150059103
 31
0.0
  0
LINE
  5
897
330
1F
100
AcDbEntity
  8
0
100
AcDbLine
 10
28.55869022461195
 20
70.27021214002502
 30
0.0
 11
28.60846793051785
 21
70.31998984593093
 31
0.0
  0
LINE
  5
898
330
1F
100
AcDbEntity
  8
0
100
AcDbLine
 10
28.70355376972825
 20
70.41507568514133
 30
0.0
 11
28.78156688630873
 21
70.49308880172181
 31
0.0
  0
LINE
  5
899
330
1F
100
AcDbEntity
  8
0
100
AcDbLine
 10
27.36355304323098
 20
69.08257029052464
 30
0.0
 11
27.46914870966564
 21
69.1881659569593
 31
0.0
  0
LINE
  5
89A
330
1F
100
AcDbEntity
  8
0
100
AcDbLine
 10
28.01054325173697
 20
69.72956049903063
 30
0.0
 11
28.06410988572082
 21
69.78312713301447
 31
0.0
  0
LINE
  5
89B
330
1F
100
AcDbEntity
  8
0
100
AcDbLine
 10
28.27474515980395
 20
69.9937624070976
 30
0.0
 11
28.42133184326093
 21
70.1403490905546
 31
0.0
  0
LINE
  5
89C
330
1F
100
AcDbEntity
  8
0
100
AcDbLine
 10
28.55636506007278
 20
70.27538230736644
 30
0.0
 11
28.60573497480061
 21
70.32475222209428
 31
0.0
  0
LINE
  5
89D
330
1F
100
AcDbEntity
  8
0
100
AcDbLine
 10
28.70079911035952
 20
70.41981635765318
 30
0.0
 11
28.77881222683863
 21
70.49782947413229
 31
0.0
  0
LINE
  5
89E
330
1F
100
AcDbEntity
  8
0
100
AcDbLine
 10
27.3570010190905
 20
69.08351359826474
 30
0.0
 11
27.46165337778507
 21
69.1881659569593
 31
0.0
  0
LINE
  5
89F
330
1F
100
AcDbEntity
  8
0
100
AcDbLine
 10
28.00806712130361
 20
69.73457970047785
 30
0.0
 11
28.06258391732247
 21
69.7890964964967
 31
0.0
  0
LINE
  5
8A0
330
1F
100
AcDbEntity
  8
0
100
AcDbLine
 10
28.28597856895441
 20
70.01249114812865
 30
0.0
 11
28.42360583573634
 21
70.15011841491058
 31
0.0
  0
LINE
  5
8A1
330
1F
100
AcDbEntity
  8
0
100
AcDbLine
 10
28.55396182423951
 20
70.28047440341375
 30
0.0
 11
28.60300041415846
 21
70.3295129933327
 31
0.0
  0
LINE
  5
8A2
330
1F
100
AcDbEntity
  8
0
100
AcDbLine
 10
28.69804445099079
 20
70.42455703016502
 30
0.0
 11
28.7760575673685
 21
70.50257014654274
 31
0.0
  0
LINE
  5
8A3
330
1F
100
AcDbEntity
  8
0
100
AcDbLine
 10
27.35044899495002
 20
69.08445690600483
 30
0.0
 11
27.45415804590448
 21
69.1881659569593
 31
0.0
  0
LINE
  5
8A4
330
1F
100
AcDbEntity
  8
0
100
AcDbLine
 10
28.00569240079264
 20
69.73970031184746
 30
0.0
 11
28.06122499029582
 21
69.79523290135063
 31
0.0
  0
LINE
  5
8A5
330
1F
100
AcDbEntity
  8
0
100
AcDbLine
 10
28.29695350927479
 20
70.0309614203296
 30
0.0
 11
28.42525891030683
 21
70.15926682136164
 31
0.0
  0
LINE
  5
8A6
330
1F
100
AcDbEntity
  8
0
100
AcDbLine
 10
28.55152092137695
 20
70.28552883243177
 30
0.0
 11
28.60023699545083
 21
70.33424490650565
 31
0.0
  0
LINE
  5
8A7
330
1F
100
AcDbEntity
  8
0
100
AcDbLine
 10
28.69528979162205
 20
70.42929770267686
 30
0.0
 11
28.77330290789839
 21
70.5073108189532
 31
0.0
  0
LINE
  5
8A8
330
1F
100
AcDbEntity
  8
0
100
AcDbLine
 10
27.34426232307691
 20
69.0857655660123
 30
0.0
 11
27.4466627140239
 21
69.1881659569593
 31
0.0
  0
LINE
  5
8A9
330
1F
100
AcDbEntity
  8
0
100
AcDbLine
 10
28.00333180771425
 20
69.74483505064964
 30
0.0
 11
28.06006628101845
 21
69.80156952395384
 31
0.0
  0
LINE
  5
8AA
330
1F
100
AcDbEntity
  8
0
100
AcDbLine
 10
28.30718356323723
 20
70.04868680617263
 30
0.0
 11
28.42638134184127
 21
70.16788458477667
 31
0.0
  0
LINE
  5
8AB
330
1F
100
AcDbEntity
  8
0
100
AcDbLine
 10
28.5490211815163
 20
70.29052442445169
 30
0.0
 11
28.59746506285826
 21
70.33896830579366
 31
0.0
  0
LINE
  5
8AC
330
1F
100
AcDbEntity
  8
0
100
AcDbLine
 10
28.69253513225331
 20
70.4340383751887
 30
0.0
 11
28.77054824842828
 21
70.51205149136366
 31
0.0
  0
LINE
  5
8AD
330
1F
100
AcDbEntity
  8
0
100
AcDbLine
 10
27.33823196110969
 20
69.08723053592566
 30
0.0
 11
27.43916738214332
 21
69.18816595695928
 31
0.0
  0
LINE
  5
8AE
330
1F
100
AcDbEntity
  8
0
100
AcDbLine
 10
28.00109466375367
 20
69.75009323856963
 30
0.0
 11
28.05902498917001
 21
69.80802356398597
 31
0.0
  0
LINE
  5
8AF
330
1F
100
AcDbEntity
  8
0
100
AcDbLine
 10
28.31627863745742
 20
70.06527721227339
 30
0.0
 11
28.42705457903988
 21
70.17605315385585
 31
0.0
  0
LINE
  5
8B0
330
1F
100
AcDbEntity
  8
0
100
AcDbLine
 10
28.54648315855092
 20
70.29548173336688
 30
0.0
 11
28.59467939378411
 21
70.34367796860008
 31
0.0
  0
LINE
  5
8B1
330
1F
100
AcDbEntity
  8
0
100
AcDbLine
 10
28.68978047288459
 20
70.43877904770055
 30
0.0
 11
28.76779358895816
 21
70.51679216377413
 31
0.0
  0
LINE
  5
8B2
330
1F
100
AcDbEntity
  8
0
100
AcDbLine
 10
27.33220159914248
 20
69.08869550583903
 30
0.0
 11
27.43167205026275
 21
69.1881659569593
 31
0.0
  0
LINE
  5
8B3
330
1F
100
AcDbEntity
  8
0
100
AcDbLine
 10
27.99887828976703
 20
69.75537219646358
 30
0.0
 11
28.05833717115936
 21
69.8148310778559
 31
0.0
  0
LINE
  5
8B4
330
1F
100
AcDbEntity
  8
0
100
AcDbLine
 10
28.32415268418568
 20
70.08064659088222
 30
0.0
 11
28.42732322892762
 21
70.18381713562417
 31
0.0
  0
LINE
  5
8B5
330
1F
100
AcDbEntity
  8
0
100
AcDbLine
 10
28.54390524101427
 20
70.3003991477108
 30
0.0
 11
28.59188287082649
 21
70.34837677752303
 31
0.0
  0
LINE
  5
8B6
330
1F
100
AcDbEntity
  8
0
100
AcDbLine
 10
28.68702581351585
 20
70.4435197202124
 30
0.0
 11
28.76503892948805
 21
70.52153283618459
 31
0.0
  0
LINE
  5
8B7
330
1F
100
AcDbEntity
  8
0
100
AcDbLine
 10
27.32662204609336
 20
69.09061128467049
 30
0.0
 11
27.42417671838217
 21
69.1881659569593
 31
0.0
  0
LINE
  5
8B8
330
1F
100
AcDbEntity
  8
0
100
AcDbLine
 10
27.9968028208967
 20
69.76079205947381
 30
0.0
 11
28.05786542362967
 21
69.82185466220679
 31
0.0
  0
LINE
  5
8B9
330
1F
100
AcDbEntity
  8
0
100
AcDbLine
 10
28.33077599959997
 20
70.09476523817709
 30
0.0
 11
28.42709945172464
 21
70.19108869030175
 31
0.0
  0
LINE
  5
8BA
330
1F
100
AcDbEntity
  8
0
100
AcDbLine
 10
28.54128687321512
 20
70.30527611179225
 30
0.0
 11
28.58908227990965
 21
70.35307151848677
 31
0.0
  0
LINE
  5
8BB
330
1F
100
AcDbEntity
  8
0
100
AcDbLine
 10
28.68427115414712
 20
70.44826039272424
 30
0.0
 11
28.76228427001793
 21
70.52627350859505
 31
0.0
  0
LINE
  5
8BC
330
1F
100
AcDbEntity
  8
0
100
AcDbLine
 10
27.32105592753601
 20
69.09254049799371
 30
0.0
 11
27.4166813865016
 21
69.1881659569593
 31
0.0
  0
LINE
  5
8BD
330
1F
100
AcDbEntity
  8
0
100
AcDbLine
 10
27.99476761249759
 20
69.76625218295528
 30
0.0
 11
28.05764126562154
 21
69.82912583607924
 31
0.0
  0
LINE
  5
8BE
330
1F
100
AcDbEntity
  8
0
100
AcDbLine
 10
28.33632490450977
 20
70.10780947496747
 30
0.0
 11
28.42662802473251
 21
70.19811259519021
 31
0.0
  0
LINE
  5
8BF
330
1F
100
AcDbEntity
  8
0
100
AcDbLine
 10
28.53864558610549
 20
70.31013015656319
 30
0.0
 11
28.58627355753474
 21
70.35775812799243
 31
0.0
  0
LINE
  5
8C0
330
1F
100
AcDbEntity
  8
0
100
AcDbLine
 10
28.68151649477838
 20
70.45300106523608
 30
0.0
 11
28.75952961054782
 21
70.53101418100552
 31
0.0
  0
LINE
  5
8C1
330
1F
100
AcDbEntity
  8
0
100
AcDbLine
 10
27.31553039080327
 20
69.09451029314154
 30
0.0
 11
27.40918605462102
 21
69.1881659569593
 31
0.0
  0
LINE
  5
8C2
330
1F
100
AcDbEntity
  8
0
100
AcDbLine
 10
27.99288170895733
 20
69.7718616112956
 30
0.0
 11
28.05790991550973
 21
69.836889817848
 31
0.0
  0
LINE
  5
8C3
330
1F
100
AcDbEntity
  8
0
100
AcDbLine
 10
28.34087106309044
 20
70.11985096542872
 30
0.0
 11
28.42594020672209
 21
70.20492010906037
 31
0.0
  0
LINE
  5
8C4
330
1F
100
AcDbEntity
  8
0
100
AcDbLine
 10
28.53596220168165
 20
70.31494210401992
 30
0.0
 11
28.58297133850435
 21
70.36195124084263
 31
0.0
  0
LINE
  5
8C5
330
1F
100
AcDbEntity
  8
0
100
AcDbLine
 10
28.67876183540966
 20
70.45774173774792
 30
0.0
 11
28.75677495107771
 21
70.53575485341598
 31
0.0
  0
LINE
  5
8C6
330
1F
100
AcDbEntity
  8
0
100
AcDbLine
 10
27.3103873483497
 20
69.09686258256855
 30
0.0
 11
27.40169072274045
 21
69.1881659569593
 31
0.0
  0
LINE
  5
8C7
330
1F
100
AcDbEntity
  8
0
100
AcDbLine
 10
27.9910758931883
 20
69.77755112740715
 30
0.0
 11
28.0585827319754
 21
69.84505796619426
 31
0.0
  0
LINE
  5
8C8
330
1F
100
AcDbEntity
  8
0
100
AcDbLine
 10
28.34448739396739
 20
70.13096262818624
 30
0.0
 11
28.424899182128
 21
70.21137441634684
 31
0.0
  0
LINE
  5
8C9
330
1F
100
AcDbEntity
  8
0
100
AcDbLine
 10
28.5332696957664
 20
70.31974492998525
 30
0.0
 11
28.57534829165723
 21
70.36182352587608
 31
0.0
  0
LINE
  5
8CA
330
1F
100
AcDbEntity
  8
0
100
AcDbLine
 10
28.67600717604092
 20
70.46248241025977
 30
0.0
 11
28.75402029160759
 21
70.54049552582644
 31
0.0
  0
LINE
  5
8CB
330
1F
100
AcDbEntity
  8
0
100
AcDbLine
 10
27.30524430589613
 20
69.09921487199556
 30
0.0
 11
27.39419539085987
 21
69.1881659569593
 31
0.0
  0
LINE
  5
8CC
330
1F
100
AcDbEntity
  8
0
100
AcDbLine
 10
27.98941230217586
 20
69.78338286827528
 30
0.0
 11
28.0597047083896
 21
69.85367527448902
 31
0.0
  0
LINE
  5
8CD
330
1F
100
AcDbEntity
  8
0
100
AcDbLine
 10
28.34732172407529
 20
70.14129229017472
 30
0.0
 11
28.42374069769756
 21
70.21771126379699
 31
0.0
  0
LINE
  5
8CE
330
1F
100
AcDbEntity
  8
0
100
AcDbLine
 10
28.53053550228697
 20
70.3245060683864
 30
0.0
 11
28.56772524481009
 21
70.36169581090952
 31
0.0
  0
LINE
  5
8CF
330
1F
100
AcDbEntity
  8
0
100
AcDbLine
 10
28.67325251667218
 20
70.46722308277161
 30
0.0
 11
28.75126563213748
 21
70.5452361982369
 31
0.0
  0
LINE
  5
8D0
330
1F
100
AcDbEntity
  8
0
100
AcDbLine
 10
27.30014107463411
 20
69.1016069726141
 30
0.0
 11
27.38670005897928
 21
69.1881659569593
 31
0.0
  0
LINE
  5
8D1
330
1F
100
AcDbEntity
  8
0
100
AcDbLine
 10
27.98789973766185
 20
69.78936563564186
 30
0.0
 11
28.06135729248173
 21
69.86282319046174
 31
0.0
  0
LINE
  5
8D2
330
1F
100
AcDbEntity
  8
0
100
AcDbLine
 10
28.34944919472062
 20
70.15091509270061
 30
0.0
 11
28.42238177067105
 21
70.22384766865105
 31
0.0
  0
LINE
  5
8D3
330
1F
100
AcDbEntity
  8
0
100
AcDbLine
 10
28.52780130880755
 20
70.32926720678755
 30
0.0
 11
28.56010219796296
 21
70.36156809594297
 31
0.0
  0
LINE
  5
8D4
330
1F
100
AcDbEntity
  8
0
100
AcDbLine
 10
28.67049785730345
 20
70.47196375528345
 30
0.0
 11
28.74851097266736
 21
70.54997687064737
 31
0.0
  0
LINE
  5
8D5
330
1F
100
AcDbEntity
  8
0
100
AcDbLine
 10
27.29539202001529
 20
69.10435324987587
 30
0.0
 11
27.3794115959566
 21
69.18837282581718
 31
0.0
  0
LINE
  5
8D6
330
1F
100
AcDbEntity
  8
0
100
AcDbLine
 10
27.98649749359064
 20
69.79545872345122
 30
0.0
 11
28.06363075904279
 21
69.87259198890337
 31
0.0
  0
LINE
  5
8D7
330
1F
100
AcDbEntity
  8
0
100
AcDbLine
 10
28.35095665467993
 20
70.1599178845405
 30
0.0
 11
28.42085599270675
 21
70.22981722256733
 31
0.0
  0
LINE
  5
8D8
330
1F
100
AcDbEntity
  8
0
100
AcDbLine
 10
28.52503029197264
 20
70.33399152183321
 30
0.0
 11
28.55247915111583
 21
70.3614403809764
 31
0.0
  0
LINE
  5
8D9
330
1F
100
AcDbEntity
  8
0
100
AcDbLine
 10
28.66774319793471
 20
70.4767044277953
 30
0.0
 11
28.74575631319725
 21
70.55471754305783
 31
0.0
  0
LINE
  5
8DA
330
1F
100
AcDbEntity
  8
0
100
AcDbLine
 10
27.29064296539647
 20
69.10709952713763
 30
0.0
 11
27.37243945682298
 21
69.18889601856414
 31
0.0
  0
LINE
  5
8DB
330
1F
100
AcDbEntity
  8
0
100
AcDbLine
 10
27.98536409250876
 20
69.80182065424992
 30
0.0
 11
28.0666224569801
 21
69.88307901872126
 31
0.0
  0
LINE
  5
8DC
330
1F
100
AcDbEntity
  8
0
100
AcDbLine
 10
28.3519443131551
 20
70.16840087489626
 30
0.0
 11
28.41923735890942
 21
70.23569392065058
 31
0.0
  0
LINE
  5
8DD
330
1F
100
AcDbEntity
  8
0
100
AcDbLine
 10
28.52225865212094
 20
70.3387152138621
 30
0.0
 11
28.5448561042687
 21
70.36131266600985
 31
0.0
  0
LINE
  5
8DE
330
1F
100
AcDbEntity
  8
0
100
AcDbLine
 10
28.66498853856599
 20
70.48144510030714
 30
0.0
 11
28.74300165372713
 21
70.55945821546828
 31
0.0
  0
LINE
  5
8DF
330
1F
100
AcDbEntity
  8
0
100
AcDbLine
 10
27.28589901453109
 20
69.10985090815282
 30
0.0
 11
27.36622836688182
 21
69.19018026050355
 31
0.0
  0
LINE
  5
8E0
330
1F
100
AcDbEntity
  8
0
100
AcDbLine
 10
27.9843606237583
 20
69.80831251738003
 30
0.0
 11
28.07043341874622
 21
69.89438531236796
 31
0.0
  0
LINE
  5
8E1
330
1F
100
AcDbEntity
  8
0
100
AcDbLine
 10
28.35249329603184
 20
70.17644518965358
 30
0.0
 11
28.41742797793049
 21
70.24137987155223
 31
0.0
  0
LINE
  5
8E2
330
1F
100
AcDbEntity
  8
0
100
AcDbLine
 10
28.51946800613603
 20
70.34341989975778
 30
0.0
 11
28.53723305742156
 21
70.3611849510433
 31
0.0
  0
LINE
  5
8E3
330
1F
100
AcDbEntity
  8
0
100
AcDbLine
 10
28.66223387919725
 20
70.48618577281898
 30
0.0
 11
28.74024699425701
 21
70.56419888787875
 31
0.0
  0
LINE
  5
8E4
330
1F
100
AcDbEntity
  8
0
100
AcDbLine
 10
27.28152431733048
 20
69.11297154283278
 30
0.0
 11
27.36025230444774
 21
69.19169952995006
 31
0.0
  0
LINE
  5
8E5
330
1F
100
AcDbEntity
  8
0
100
AcDbLine
 10
27.98363392982943
 20
69.81508115533174
 30
0.0
 11
28.07516278216371
 21
69.90661000766602
 31
0.0
  0
LINE
  5
8E6
330
1F
100
AcDbEntity
  8
0
100
AcDbLine
 10
28.35267663268267
 20
70.18412385818498
 30
0.0
 11
28.41558563541046
 21
70.24703286091277
 31
0.0
  0
LINE
  5
8E7
330
1F
100
AcDbEntity
  8
0
100
AcDbLine
 10
28.51667167712163
 20
70.34811890262394
 30
0.0
 11
28.52961001057443
 21
70.36105723607673
 31
0.0
  0
LINE
  5
8E8
330
1F
100
AcDbEntity
  8
0
100
AcDbLine
 10
28.65947921982851
 20
70.49092644533083
 30
0.0
 11
28.7374923347869
 21
70.56893956028921
 31
0.0
  0
LINE
  5
8E9
330
1F
100
AcDbEntity
  8
0
100
AcDbLine
 10
27.27714962012984
 20
69.11609217751273
 30
0.0
 11
27.35487177021196
 21
69.19381432759485
 31
0.0
  0
LINE
  5
8EA
330
1F
100
AcDbEntity
  8
0
100
AcDbLine
 10
27.9832186603646
 20
69.82216121774749
 30
0.0
 11
28.08089952187498
 21
69.91984207925788
 31
0.0
  0
LINE
  5
8EB
330
1F
100
AcDbEntity
  8
0
100
AcDbLine
 10
28.35242402680735
 20
70.19136658419023
 30
0.0
 11
28.41355762032313
 21
70.25250017770603
 31
0.0
  0
LINE
  5
8EC
330
1F
100
AcDbEntity
  8
0
100
AcDbLine
 10
28.51386865414444
 20
70.35281121152732
 30
0.0
 11
28.52198696372729
 21
70.36092952111018
 31
0.0
  0
LINE
  5
8ED
330
1F
100
AcDbEntity
  8
0
100
AcDbLine
 10
28.65672456045979
 20
70.49566711784267
 30
0.0
 11
28.73473767531678
 21
70.57368023269967
 31
0.0
  0
LINE
  5
8EE
330
1F
100
AcDbEntity
  8
0
100
AcDbLine
 10
27.27277492292921
 20
69.11921281219269
 30
0.0
 11
27.34970139542323
 21
69.1961392846867
 31
0.0
  0
LINE
  5
8EF
330
1F
100
AcDbEntity
  8
0
100
AcDbLine
 10
27.98306936198458
 20
69.82950725124805
 30
0.0
 11
28.08776268731442
 21
69.93420057657788
 31
0.0
  0
LINE
  5
8F0
330
1F
100
AcDbEntity
  8
0
100
AcDbLine
 10
28.35185879712414
 20
70.19829668638761
 30
0.0
 11
28.41151317080742
 21
70.2579510600709
 31
0.0
  0
LINE
  5
8F1
330
1F
100
AcDbEntity
  8
0
100
AcDbLine
 10
28.51106003536496
 20
70.35749792462842
 30
0.0
 11
28.51436391688016
 21
70.36080180614363
 31
0.0
  0
LINE
  5
8F2
330
1F
100
AcDbEntity
  8
0
100
AcDbLine
 10
28.65396990109105
 20
70.50040779035452
 30
0.0
 11
28.73198301584668
 21
70.57842090511014
 31
0.0
  0
LINE
  5
8F3
330
1F
100
AcDbEntity
  8
0
100
AcDbLine
 10
27.26871265628112
 20
69.12264587742516
 30
0.0
 11
27.34495234468854
 21
69.19888556583258
 31
0.0
  0
LINE
  5
8F4
330
1F
100
AcDbEntity
  8
0
100
AcDbLine
 10
27.98330595191552
 20
69.83723917305957
 30
0.0
 11
28.09594344873474
 21
69.94987666987878
 31
0.0
  0
LINE
  5
8F5
330
1F
100
AcDbEntity
  8
0
100
AcDbLine
 10
28.35110405751388
 20
70.20503727865791
 30
0.0
 11
28.40932443107159
 21
70.26325765221563
 31
0.0
  0
LINE
  5
8F6
330
1F
100
AcDbEntity
  8
0
100
AcDbLine
 10
28.65121524172232
 20
70.50514846286636
 30
0.0
 11
28.72922835637656
 21
70.5831615775206
 31
0.0
  0
LINE
  5
8F7
330
1F
100
AcDbEntity
  8
0
100
AcDbLine
 10
27.26470052732676
 20
69.12612908035138
 30
0.0
 11
27.34043235595512
 21
69.20186090897974
 31
0.0
  0
LINE
  5
8F8
330
1F
100
AcDbEntity
  8
0
100
AcDbLine
 10
27.98407087564248
 20
69.8454994286671
 30
0.0
 11
28.10527178433353
 21
69.96670033735815
 31
0.0
  0
LINE
  5
8F9
330
1F
100
AcDbEntity
  8
0
100
AcDbLine
 10
28.35005087299149
 20
70.21147942601611
 30
0.0
 11
28.40711764306402
 21
70.26854619608864
 31
0.0
  0
LINE
  5
8FA
330
1F
100
AcDbEntity
  8
0
100
AcDbLine
 10
28.64846058235358
 20
70.5098891353782
 30
0.0
 11
28.72647369690644
 21
70.58790224993106
 31
0.0
  0
LINE
  5
8FB
330
1F
100
AcDbEntity
  8
0
100
AcDbLine
 10
27.26068839837239
 20
69.1296122832776
 30
0.0
 11
27.33626582946507
 21
69.20518971437026
 31
0.0
  0
LINE
  5
8FC
330
1F
100
AcDbEntity
  8
0
100
AcDbLine
 10
27.98529745751318
 20
69.85422134241837
 30
0.0
 11
28.11566493557492
 21
69.98458882048011
 31
0.0
  0
LINE
  5
8FD
330
1F
100
AcDbEntity
  8
0
100
AcDbLine
 10
28.34882699640486
 20
70.21775088131007
 30
0.0
 11
28.40479212243281
 21
70.27371600733801
 31
0.0
  0
LINE
  5
8FE
330
1F
100
AcDbEntity
  8
0
100
AcDbLine
 10
28.64570592298485
 20
70.51462980789005
 30
0.0
 11
28.72371903743633
 21
70.59264292234153
 31
0.0
  0
LINE
  5
8FF
330
1F
100
AcDbEntity
  8
0
100
AcDbLine
 10
27.25691733340536
 20
69.13333655019113
 30
0.0
 11
27.3323234667716
 21
69.20874268355738
 31
0.0
  0
LINE
  5
900
330
1F
100
AcDbEntity
  8
0
100
AcDbLine
 10
27.98706817900728
 20
69.86348739579306
 30
0.0
 11
28.126736931841
 21
70.00315614862677
 31
0.0
  0
LINE
  5
901
330
1F
100
AcDbEntity
  8
0
100
AcDbLine
 10
28.34746753220901
 20
70.22388674899477
 30
0.0
 11
28.40245391994425
 21
70.27887313673003
 31
0.0
  0
LINE
  5
902
330
1F
100
AcDbEntity
  8
0
100
AcDbLine
 10
28.64295126361612
 20
70.51937048040189
 30
0.0
 11
28.72096437796621
 21
70.59738359475199
 31
0.0
  0
LINE
  5
903
330
1F
100
AcDbEntity
  8
0
100
AcDbLine
 10
27.25326291271571
 20
69.13717746138205
 30
0.0
 11
27.32872013768223
 21
69.21263468634858
 31
0.0
  0
LINE
  5
904
330
1F
100
AcDbEntity
  8
0
100
AcDbLine
 10
27.98947421073889
 20
69.87338875940524
 30
0.0
 11
28.13789697978433
 21
70.02181152845068
 31
0.0
  0
LINE
  5
905
330
1F
100
AcDbEntity
  8
0
100
AcDbLine
 10
28.34588667299781
 20
70.22980122166416
 30
0.0
 11
28.40001260326078
 21
70.28392715192713
 31
0.0
  0
LINE
  5
906
330
1F
100
AcDbEntity
  8
0
100
AcDbLine
 10
28.64019660424738
 20
70.52411115291373
 30
0.0
 11
28.71820971849609
 21
70.60212426716244
 31
0.0
  0
LINE
  5
907
330
1F
100
AcDbEntity
  8
0
100
AcDbLine
 10
27.24960849202605
 20
69.14101837257297
 30
0.0
 11
27.32534009590294
 21
69.21674997644988
 31
0.0
  0
LINE
  5
908
330
1F
100
AcDbEntity
  8
0
100
AcDbLine
 10
27.99261353205072
 20
69.88402341259764
 30
0.0
 11
28.14859054963981
 21
70.04000043018674
 31
0.0
  0
LINE
  5
909
330
1F
100
AcDbEntity
  8
0
100
AcDbLine
 10
28.34425139964478
 20
70.2356612801917
 30
0.0
 11
28.39756732776707
 21
70.288977208314
 31
0.0
  0
LINE
  5
90A
330
1F
100
AcDbEntity
  8
0
100
AcDbLine
 10
28.63744194487866
 20
70.52885182542558
 30
0.0
 11
28.71545505902598
 21
70.6068649395729
 31
0.0
  0
LINE
  5
90B
330
1F
100
AcDbEntity
  8
0
100
AcDbLine
 10
27.2461262921449
 20
69.1450315045724
 30
0.0
 11
27.32230655006805
 21
69.22121176249556
 31
0.0
  0
LINE
  5
90C
330
1F
100
AcDbEntity
  8
0
100
AcDbLine
 10
27.99658736446928
 20
69.89549257689679
 30
0.0
 11
28.15835635186059
 21
70.0572615642881
 31
0.0
  0
LINE
  5
90D
330
1F
100
AcDbEntity
  8
0
100
AcDbLine
 10
28.34241178116092
 20
70.24131699358843
 30
0.0
 11
28.3950288629654
 21
70.2939340753929
 31
0.0
  0
LINE
  5
90E
330
1F
100
AcDbEntity
  8
0
100
AcDbLine
 10
28.63468728550991
 20
70.53359249793742
 30
0.0
 11
28.71270039955586
 21
70.61160561198336
 31
0.0
  0
LINE
  5
90F
330
1F
100
AcDbEntity
  8
0
100
AcDbLine
 10
27.24283128576517
 20
69.14923183007325
 30
0.0
 11
27.31952632850056
 21
69.22592687280864
 31
0.0
  0
LINE
  5
910
330
1F
100
AcDbEntity
  8
0
100
AcDbLine
 10
28.00149436264189
 20
69.90789490694998
 30
0.0
 11
28.16689725055574
 21
70.07329779486382
 31
0.0
  0
LINE
  5
911
330
1F
100
AcDbEntity
  8
0
100
AcDbLine
 10
28.34052969860651
 20
70.24693024291459
 30
0.0
 11
28.39249039816373
 21
70.29889094247181
 31
0.0
  0
LINE
  5
912
330
1F
100
AcDbEntity
  8
0
100
AcDbLine
 10
28.63193262614119
 20
70.53833317044926
 30
0.0
 11
28.70994574008575
 21
70.61634628439383
 31
0.0
  0
LINE
  5
913
330
1F
100
AcDbEntity
  8
0
100
AcDbLine
 10
27.23953627938545
 20
69.15343215557411
 30
0.0
 11
27.31709630992189
 21
69.23099218611054
 31
0.0
  0
LINE
  5
914
330
1F
100
AcDbEntity
  8
0
100
AcDbLine
 10
28.00742206120487
 20
69.92131793739352
 30
0.0
 11
28.17425882909646
 21
70.08815470528512
 31
0.0
  0
LINE
  5
915
330
1F
100
AcDbEntity
  8
0
100
AcDbLine
 10
28.33850182117489
 20
70.25239769736355
 30
0.0
 11
28.38987709669526
 21
70.30377297288392
 31
0.0
  0
LINE
  5
916
330
1F
100
AcDbEntity
  8
0
100
AcDbLine
 10
28.62917796677245
 20
70.5430738429611
 30
0.0
 11
28.70719108061564
 21
70.62108695680429
 31
0.0
  0
LINE
  5
917
330
1F
100
AcDbEntity
  8
0
100
AcDbLine
 10
27.23635400750313
 20
69.15774521557236
 30
0.0
 11
27.31501916989782
 21
69.23641037796705
 31
0.0
  0
LINE
  5
918
330
1F
100
AcDbEntity
  8
0
100
AcDbLine
 10
28.01466735799511
 20
69.93605856606435
 30
0.0
 11
28.1804215870819
 21
70.10181279515113
 31
0.0
  0
LINE
  5
919
330
1F
100
AcDbEntity
  8
0
100
AcDbLine
 10
28.33642364600607
 20
70.2578148540753
 30
0.0
 11
28.38725828645692
 21
70.30864949452615
 31
0.0
  0
LINE
  5
91A
330
1F
100
AcDbEntity
  8
0
100
AcDbLine
 10
28.62642330740372
 20
70.54781451547295
 30
0.0
 11
28.70443642114552
 21
70.62582762921475
 31
0.0
  0
LINE
  5
91B
330
1F
100
AcDbEntity
  8
0
100
AcDbLine
 10
27.23342681413803
 20
69.16231335408784
 30
0.0
 11
27.31326032089081
 21
69.24214686084062
 31
0.0
  0
LINE
  5
91C
330
1F
100
AcDbEntity
  8
0
100
AcDbLine
 10
28.02305036748238
 20
69.95193690743218
 30
0.0
 11
28.18544968726165
 21
70.11433622721145
 31
0.0
  0
LINE
  5
91D
330
1F
100
AcDbEntity
  8
0
100
AcDbLine
 10
28.33423517174011
 20
70.26312171168992
 30
0.0
 11
28.38458830396229
 21
70.31347484391209
 31
0.0
  0
LINE
  5
91E
330
1F
100
AcDbEntity
  8
0
100
AcDbLine
 10
28.62366864803499
 20
70.5525551879848
 30
0.0
 11
28.70168176167541
 21
70.63056830162522
 31
0.0
  0
LINE
  5
91F
330
1F
100
AcDbEntity
  8
0
100
AcDbLine
 10
27.23049962077296
 20
69.16688149260334
 30
0.0
 11
27.31209438414744
 21
69.24847625597782
 31
0.0
  0
LINE
  5
920
330
1F
100
AcDbEntity
  8
0
100
AcDbLine
 10
28.0327132512331
 20
69.9690951230635
 30
0.0
 11
28.18954679288655
 21
70.12592866471694
 31
0.0
  0
LINE
  5
921
330
1F
100
AcDbEntity
  8
0
100
AcDbLine
 10
28.33199982471234
 20
70.26838169654273
 30
0.0
 11
28.38190450232045
 21
70.31828637415084
 31
0.0
  0
LINE
  5
922
330
1F
100
AcDbEntity
  8
0
100
AcDbLine
 10
28.62091398866624
 20
70.55729586049662
 30
0.0
 11
28.6989271022053
 21
70.6353089740357
 31
0.0
  0
LINE
  5
923
330
1F
100
AcDbEntity
  8
0
100
AcDbLine
 10
27.22764327022882
 20
69.17152047393978
 30
0.0
 11
27.3112610080411
 21
69.25513821175205
 31
0.0
  0
LINE
  5
924
330
1F
100
AcDbEntity
  8
0
100
AcDbLine
 10
28.04331650277034
 20
69.9871937064813
 30
0.0
 11
28.19280950386632
 21
70.13668670757728
 31
0.0
  0
LINE
  5
925
330
1F
100
AcDbEntity
  8
0
100
AcDbLine
 10
28.32967466017321
 20
70.27355186388418
 30
0.0
 11
28.37918951729452
 21
70.32306672100549
 31
0.0
  0
LINE
  5
926
330
1F
100
AcDbEntity
  8
0
100
AcDbLine
 10
28.61815932929753
 20
70.5620365330085
 30
0.0
 11
28.69617244273518
 21
70.64004964644614
 31
0.0
  0
LINE
  5
927
330
1F
100
AcDbEntity
  8
0
100
AcDbLine
 10
27.22509961808608
 20
69.17647215367762
 30
0.0
 11
27.311276701849
 21
69.26264923744054
 31
0.0
  0
LINE
  5
928
330
1F
100
AcDbEntity
  8
0
100
AcDbLine
 10
28.05448568674039
 20
70.00585822233194
 30
0.0
 11
28.19533742156152
 21
70.14670995715306
 31
0.0
  0
LINE
  5
929
330
1F
100
AcDbEntity
  8
0
100
AcDbLine
 10
28.32731240027862
 20
70.27868493587016
 30
0.0
 11
28.37645495665236
 21
70.32782749224391
 31
0.0
  0
LINE
  5
92A
330
1F
100
AcDbEntity
  8
0
100
AcDbLine
 10
28.61540466992878
 20
70.56677720552032
 30
0.0
 11
28.69341778326507
 21
70.64479031885661
 31
0.0
  0
LINE
  5
92B
330
1F
100
AcDbEntity
  8
0
100
AcDbLine
 10
27.22255596594333
 20
69.18142383341544
 30
0.0
 11
27.31226001169934
 21
69.27112787917146
 31
0.0
  0
LINE
  5
92C
330
1F
100
AcDbEntity
  8
0
100
AcDbLine
 10
28.06563106204955
 20
70.02449892952167
 30
0.0
 11
28.19722731205563
 21
70.15609517952775
 31
0.0
  0
LINE
  5
92D
330
1F
100
AcDbEntity
  8
0
100
AcDbLine
 10
28.32487149741608
 20
70.28373936488819
 30
0.0
 11
28.37370476909152
 21
70.33257263656364
 31
0.0
  0
LINE
  5
92E
330
1F
100
AcDbEntity
  8
0
100
AcDbLine
 10
28.61265001056005
 20
70.57151787803217
 30
0.0
 11
28.69066312379496
 21
70.64953099126707
 31
0.0
  0
LINE
  5
92F
330
1F
100
AcDbEntity
  8
0
100
AcDbLine
 10
27.22007028602687
 20
69.18643348537957
 30
0.0
 11
27.31469989148267
 21
69.28106309083536
 31
0.0
  0
LINE
  5
930
330
1F
100
AcDbEntity
  8
0
100
AcDbLine
 10
28.07614823722148
 20
70.04251143657417
 30
0.0
 11
28.19856948782804
 21
70.16493268718074
 31
0.0
  0
LINE
  5
931
330
1F
100
AcDbEntity
  8
0
100
AcDbLine
 10
28.32240614190849
 20
70.28876934126119
 30
0.0
 11
28.37093283649896
 21
70.33729603585165
 31
0.0
  0
LINE
  5
932
330
1F
100
AcDbEntity
  8
0
100
AcDbLine
 10
28.60989535119132
 20
70.57625855054401
 30
0.0
 11
28.68790846432484
 21
70.65427166367753
 31
0.0
  0
LINE
  5
933
330
1F
100
AcDbEntity
  8
0
100
AcDbLine
 10
27.21793448561646
 20
69.19179301684974
 30
0.0
 11
27.32028958767013
 21
69.29414811890341
 31
0.0
  0
LINE
  5
934
330
1F
100
AcDbEntity
  8
0
100
AcDbLine
 10
28.08568601250416
 20
70.05954454373743
 30
0.0
 11
28.19941191927909
 21
70.17327045051236
 31
0.0
  0
LINE
  5
935
330
1F
100
AcDbEntity
  8
0
100
AcDbLine
 10
28.31986811894312
 20
70.2937266501764
 30
0.0
 11
28.36815587338546
 21
70.34201440461874
 31
0.0
  0
LINE
  5
936
330
1F
100
AcDbEntity
  8
0
100
AcDbLine
 10
28.60714069182258
 20
70.58099922305585
 30
0.0
 11
28.68515380485472
 21
70.659012336088
 31
0.0
  0
LINE
  5
937
330
1F
100
AcDbEntity
  8
0
100
AcDbLine
 10
27.21579868520606
 20
69.1971525483199
 30
0.0
 11
27.33049385924707
 21
69.31184772236092
 31
0.0
  0
LINE
  5
938
330
1F
100
AcDbEntity
  8
0
100
AcDbLine
 10
28.09398562452508
 20
70.07533948763893
 30
0.0
 11
28.19971451625457
 21
70.18106837936841
 31
0.0
  0
LINE
  5
939
330
1F
100
AcDbEntity
  8
0
100
AcDbLine
 10
28.31731864665161
 20
70.29867250976545
 30
0.0
 11
28.36535935042784
 21
70.34671321354169
 31
0.0
  0
LINE
  5
93A
330
1F
100
AcDbEntity
  8
0
100
AcDbLine
 10
28.60438603245386
 20
70.5857398955677
 30
0.0
 11
28.6823991453846
 21
70.66375300849846
 31
0.0
  0
LINE
  5
93B
330
1F
100
AcDbEntity
  8
0
100
AcDbLine
 10
27.21375429780815
 20
69.20260349280258
 30
0.0
 11
27.34089010506865
 21
69.32973930006308
 31
0.0
  0
LINE
  5
93C
330
1F
100
AcDbEntity
  8
0
100
AcDbLine
 10
28.10109409785279
 20
70.08994329284721
 30
0.0
 11
28.19967460234612
 21
70.18852379734055
 31
0.0
  0
LINE
  5
93D
330
1F
100
AcDbEntity
  8
0
100
AcDbLine
 10
28.31470027885248
 20
70.3035494738469
 30
0.0
 11
28.36256282747023
 21
70.35141202246466
 31
0.0
  0
LINE
  5
93E
330
1F
100
AcDbEntity
  8
0
100
AcDbLine
 10
28.60163137308512
 20
70.59048056807954
 30
0.0
 11
28.67964448591449
 21
70.66849368090891
 31
0.0
  0
LINE
  5
93F
330
1F
100
AcDbEntity
  8
0
100
AcDbLine
 10
27.21206133311355
 20
69.20840585998855
 30
0.0
 11
27.35128635089022
 21
69.34763087776523
 31
0.0
  0
LINE
  5
940
330
1F
100
AcDbEntity
  8
0
100
AcDbLine
 10
28.10695009659861
 20
70.10329462347362
 30
0.0
 11
28.19935793947989
 21
70.19570246635489
 31
0.0
  0
LINE
  5
941
330
1F
100
AcDbEntity
  8
0
100
AcDbLine
 10
28.31208191105333
 20
70.30842643792833
 30
0.0
 11
28.35975435621174
 21
70.35609888308674
 31
0.0
  0
LINE
  5
942
330
1F
100
AcDbEntity
  8
0
100
AcDbLine
 10
28.59887671371639
 20
70.59522124059139
 30
0.0
 11
28.67688982644437
 21
70.67323435331937
 31
0.0
  0
LINE
  5
943
330
1F
100
AcDbEntity
  8
0
100
AcDbLine
 10
27.21036836841893
 20
69.21420822717451
 30
0.0
 11
27.36168259671179
 21
69.36552245546737
 31
0.0
  0
LINE
  5
944
330
1F
100
AcDbEntity
  8
0
100
AcDbLine
 10
28.11179452335438
 20
70.11563438210996
 30
0.0
 11
28.19867012146948
 21
70.20250998022506
 31
0.0
  0
LINE
  5
945
330
1F
100
AcDbEntity
  8
0
100
AcDbLine
 10
28.30939862577259
 20
70.31323848452817
 30
0.0
 11
28.35694563383682
 21
70.3607854925924
 31
0.0
  0
LINE
  5
946
330
1F
100
AcDbEntity
  8
0
100
AcDbLine
 10
28.59612205434765
 20
70.59996191310323
 30
0.0
 11
28.67413516697427
 21
70.67797502572985
 31
0.0
  0
LINE
  5
947
330
1F
100
AcDbEntity
  8
0
100
AcDbLine
 10
27.20887421378975
 20
69.2202094044259
 30
0.0
 11
27.37207884253337
 21
69.38341403316953
 31
0.0
  0
LINE
  5
948
330
1F
100
AcDbEntity
  8
0
100
AcDbLine
 10
28.11571535726242
 20
70.12705054789858
 30
0.0
 11
28.19775813411224
 21
70.2090933247484
 31
0.0
  0
LINE
  5
949
330
1F
100
AcDbEntity
  8
0
100
AcDbLine
 10
28.30671524134875
 20
70.3180504319849
 30
0.0
 11
28.35053355156997
 21
70.36186874220613
 31
0.0
  0
LINE
  5
94A
330
1F
100
AcDbEntity
  8
0
100
AcDbLine
 10
28.59336739497892
 20
70.60470258561507
 30
0.0
 11
28.67138050750415
 21
70.68271569814031
 31
0.0
  0
LINE
  5
94B
330
1F
100
AcDbEntity
  8
0
100
AcDbLine
 10
27.20767308266765
 20
69.22650360518439
 30
0.0
 11
27.38247508835494
 21
69.40130561087167
 31
0.0
  0
LINE
  5
94C
330
1F
100
AcDbEntity
  8
0
100
AcDbLine
 10
28.11881108776605
 20
70.13764161028278
 30
0.0
 11
28.19670584480598
 21
70.21553636732271
 31
0.0
  0
LINE
  5
94D
330
1F
100
AcDbEntity
  8
0
100
AcDbLine
 10
28.30398991479077
 20
70.3228204373075
 30
0.0
 11
28.34291050497217
 21
70.3617410274889
 31
0.0
  0
LINE
  5
94E
330
1F
100
AcDbEntity
  8
0
100
AcDbLine
 10
28.59061273561019
 20
70.60944325812692
 30
0.0
 11
28.66862584803404
 21
70.68745637055076
 31
0.0
  0
LINE
  5
94F
330
1F
100
AcDbEntity
  8
0
100
AcDbLine
 10
27.20647195154555
 20
69.23279780594285
 30
0.0
 11
27.39287133417652
 21
69.41919718857382
 31
0.0
  0
LINE
  5
950
330
1F
100
AcDbEntity
  8
0
100
AcDbLine
 10
28.12118238606818
 20
70.14750824046548
 30
0.0
 11
28.19534928452174
 21
70.22167513891905
 31
0.0
  0
LINE
  5
951
330
1F
100
AcDbEntity
  8
0
100
AcDbLine
 10
28.30125572131135
 20
70.32758157570866
 30
0.0
 11
28.33528745837437
 21
70.36161331277168
 31
0.0
  0
LINE
  5
952
330
1F
100
AcDbEntity
  8
0
100
AcDbLine
 10
28.58785807624145
 20
70.61418393063876
 30
0.0
 11
28.66587118856392
 21
70.69219704296123
 31
0.0
  0
LINE
  5
953
330
1F
100
AcDbEntity
  8
0
100
AcDbLine
 10
27.20569710522742
 20
69.2395182915053
 30
0.0
 11
27.40326757999808
 21
69.43708876627596
 31
0.0
  0
LINE
  5
954
330
1F
100
AcDbEntity
  8
0
100
AcDbLine
 10
28.12292646650668
 20
70.15674765278457
 30
0.0
 11
28.19391545301382
 21
70.2277366392917
 31
0.0
  0
LINE
  5
955
330
1F
100
AcDbEntity
  8
0
100
AcDbLine
 10
28.29849796197151
 20
70.3323191482494
 30
0.0
 11
28.32766441177657
 21
70.36148559805446
 31
0.0
  0
LINE
  5
956
330
1F
100
AcDbEntity
  8
0
100
AcDbLine
 10
28.58510341687272
 20
70.6189246031506
 30
0.0
 11
28.6631165290938
 21
70.69693771537169
 31
0.0
  0
LINE
  5
957
330
1F
100
AcDbEntity
  8
0
100
AcDbLine
 10
27.20505615840896
 20
69.24637267656743
 30
0.0
 11
27.41366382581965
 21
69.45498034397811
 31
0.0
  0
LINE
  5
958
330
1F
100
AcDbEntity
  8
0
100
AcDbLine
 10
28.12413364034042
 20
70.16545015849889
 30
0.0
 11
28.19229681921649
 21
70.23361333737495
 31
0.0
  0
LINE
  5
959
330
1F
100
AcDbEntity
  8
0
100
AcDbLine
 10
28.29572632211981
 20
70.33704284027827
 30
0.0
 11
28.32004136517876
 21
70.36135788333722
 31
0.0
  0
LINE
  5
95A
330
1F
100
AcDbEntity
  8
0
100
AcDbLine
 10
28.58234875750399
 20
70.62366527566245
 30
0.0
 11
28.66036186962369
 21
70.70167838778215
 31
0.0
  0
LINE
  5
95B
330
1F
100
AcDbEntity
  8
0
100
AcDbLine
 10
27.20461264702139
 20
69.25342449706044
 30
0.0
 11
27.42406007164123
 21
69.47287192168027
 31
0.0
  0
LINE
  5
95C
330
1F
100
AcDbEntity
  8
0
100
AcDbLine
 10
28.1248855147479
 20
70.17369736478695
 30
0.0
 11
28.19056566382286
 21
70.2393775138619
 31
0.0
  0
LINE
  5
95D
330
1F
100
AcDbEntity
  8
0
100
AcDbLine
 10
28.29294441707384
 20
70.34175626711288
 30
0.0
 11
28.31241831858097
 21
70.36123016862001
 31
0.0
  0
LINE
  5
95E
330
1F
100
AcDbEntity
  8
0
100
AcDbLine
 10
28.57959409813525
 20
70.62840594817429
 30
0.0
 11
28.65760721015357
 21
70.70641906019262
 31
0.0
  0
LINE
  5
95F
330
1F
100
AcDbEntity
  8
0
100
AcDbLine
 10
27.20462833354831
 20
69.26093551546792
 30
0.0
 11
27.43445631746281
 21
69.49076349938242
 31
0.0
  0
LINE
  5
960
330
1F
100
AcDbEntity
  8
0
100
AcDbLine
 10
28.12515153388651
 20
70.18145871580612
 30
0.0
 11
28.18872607845269
 21
70.2450332603723
 31
0.0
  0
LINE
  5
961
330
1F
100
AcDbEntity
  8
0
100
AcDbLine
 10
28.29014808805941
 20
70.34645526997903
 30
0.0
 11
28.30479527198316
 21
70.36110245390277
 31
0.0
  0
LINE
  5
962
330
1F
100
AcDbEntity
  8
0
100
AcDbLine
 10
28.57683943876652
 20
70.63314662068613
 30
0.0
 11
28.65485255068345
 21
70.71115973260306
 31
0.0
  0
LINE
  5
963
330
1F
100
AcDbEntity
  8
0
100
AcDbLine
 10
27.20468038697464
 20
69.26848290077483
 30
0.0
 11
27.44485256328438
 21
69.50865507708457
 31
0.0
  0
LINE
  5
964
330
1F
100
AcDbEntity
  8
0
100
AcDbLine
 10
28.1249998592662
 20
70.1888023730664
 30
0.0
 11
28.18676201777913
 21
70.25056453157933
 31
0.0
  0
LINE
  5
965
330
1F
100
AcDbEntity
  8
0
100
AcDbLine
 10
28.28734940849119
 20
70.35115192229138
 30
0.0
 11
28.29717222538537
 21
70.36097473918556
 31
0.0
  0
LINE
  5
966
330
1F
100
AcDbEntity
  8
0
100
AcDbLine
 10
28.57408477939778
 20
70.63788729319798
 30
0.0
 11
28.65209789121335
 21
70.71590040501354
 31
0.0
  0
LINE
  5
967
330
1F
100
AcDbEntity
  8
0
100
AcDbLine
 10
27.20549219511722
 20
69.27679004079799
 30
0.0
 11
27.45524880910596
 21
69.52654665478673
 31
0.0
  0
LINE
  5
968
330
1F
100
AcDbEntity
  8
0
100
AcDbLine
 10
28.12458918934614
 20
70.19588703502691
 30
0.0
 11
28.1847340026918
 21
70.25603184837257
 31
0.0
  0
LINE
  5
969
330
1F
100
AcDbEntity
  8
0
100
AcDbLine
 10
28.28454074956561
 20
70.35583859524638
 30
0.0
 11
28.28954917878756
 21
70.36084702446833
 31
0.0
  0
LINE
  5
96A
330
1F
100
AcDbEntity
  8
0
100
AcDbLine
 10
28.57133012002905
 20
70.64262796570982
 30
0.0
 11
28.64934323174323
 21
70.720641077424
 31
0.0
  0
LINE
  5
96B
330
1F
100
AcDbEntity
  8
0
100
AcDbLine
 10
27.20632055102284
 20
69.2851137285842
 30
0.0
 11
27.46564505492752
 21
69.54443823248887
 31
0.0
  0
LINE
  5
96C
330
1F
100
AcDbEntity
  8
0
100
AcDbLine
 10
28.12390002268783
 20
70.20269320024917
 30
0.0
 11
28.18258573140245
 21
70.2613789089638
 31
0.0
  0
LINE
  5
96D
330
1F
100
AcDbEntity
  8
0
100
AcDbLine
 10
28.28173209064004
 20
70.36052526820139
 30
0.0
 11
28.28192613218976
 21
70.3607193097511
 31
0.0
  0
LINE
  5
96E
330
1F
100
AcDbEntity
  8
0
100
AcDbLine
 10
28.56857546066032
 20
70.64736863822166
 30
0.0
 11
28.64658857227312
 21
70.72538174983447
 31
0.0
  0
LINE
  5
96F
330
1F
100
AcDbEntity
  8
0
100
AcDbLine
 10
27.20813808673541
 20
69.29442659617733
 30
0.0
 11
27.47604130074909
 21
69.56232981019102
 31
0.0
  0
LINE
  5
970
330
1F
100
AcDbEntity
  8
0
100
AcDbLine
 10
28.1229101419176
 20
70.20919865135953
 30
0.0
 11
28.18039699166662
 21
70.26668550110854
 31
0.0
  0
LINE
  5
971
330
1F
100
AcDbEntity
  8
0
100
AcDbLine
 10
28.56582080129159
 20
70.65210931073351
 30
0.0
 11
28.643833912803
 21
70.73012242224492
 31
0.0
  0
LINE
  5
972
330
1F
100
AcDbEntity
  8
0
100
AcDbLine
 10
27.21026540563818
 20
69.30404924696069
 30
0.0
 11
27.48643754657067
 21
69.58022138789318
 31
0.0
  0
LINE
  5
973
330
1F
100
AcDbEntity
  8
0
100
AcDbLine
 10
28.12179470043471
 20
70.21557854175721
 30
0.0
 11
28.17810184860405
 21
70.27188568992656
 31
0.0
  0
LINE
  5
974
330
1F
100
AcDbEntity
  8
0
100
AcDbLine
 10
28.56306614192285
 20
70.65684998324535
 30
0.0
 11
28.64107925333288
 21
70.73486309465538
 31
0.0
  0
LINE
  5
975
330
1F
100
AcDbEntity
  8
0
100
AcDbLine
 10
27.21342153402606
 20
69.31470070722914
 30
0.0
 11
27.49683379239224
 21
69.59811296559532
 31
0.0
  0
LINE
  5
976
330
1F
100
AcDbEntity
  8
0
100
AcDbLine
 10
28.12043523623887
 20
70.22171440944194
 30
0.0
 11
28.17577632797284
 21
70.27705550117592
 31
0.0
  0
LINE
  5
977
330
1F
100
AcDbEntity
  8
0
100
AcDbLine
 10
28.56031148255412
 20
70.6615906557572
 30
0.0
 11
28.63832459386277
 21
70.73960376706584
 31
0.0
  0
LINE
  5
978
330
1F
100
AcDbEntity
  8
0
100
AcDbLine
 10
27.21792833994074
 20
69.3267028450244
 30
0.0
 11
27.50723003821382
 21
69.61600454329748
 31
0.0
  0
LINE
  5
979
330
1F
100
AcDbEntity
  8
0
100
AcDbLine
 10
28.11894622343316
 20
70.22772072851681
 30
0.0
 11
28.17336332580896
 21
70.28213783089262
 31
0.0
  0
LINE
  5
97A
330
1F
100
AcDbEntity
  8
0
100
AcDbLine
 10
28.55755682318539
 20
70.66633132826904
 30
0.0
 11
28.63556993439265
 21
70.74434443947631
 31
0.0
  0
LINE
  5
97B
330
1F
100
AcDbEntity
  8
0
100
AcDbLine
 10
27.22437381026192
 20
69.34064364722614
 30
0.0
 11
27.51762628403539
 21
69.63389612099962
 31
0.0
  0
LINE
  5
97C
330
1F
100
AcDbEntity
  8
0
100
AcDbLine
 10
28.11732733506452
 20
70.23359717202875
 30
0.0
 11
28.1709220091255
 21
70.28719184608974
 31
0.0
  0
LINE
  5
97D
330
1F
100
AcDbEntity
  8
0
100
AcDbLine
 10
28.55480216381666
 20
70.6710720007809
 30
0.0
 11
28.63281527492254
 21
70.74908511188677
 31
0.0
  0
LINE
  5
97E
330
1F
100
AcDbEntity
  8
0
100
AcDbLine
 10
27.23359617681222
 20
69.35736134565703
 30
0.0
 11
27.52802252985695
 21
69.65178769870177
 31
0.0
  0
LINE
  5
97F
330
1F
100
AcDbEntity
  8
0
100
AcDbLine
 10
28.11554947877683
 20
70.23931464762164
 30
0.0
 11
28.16841397978517
 21
70.29217914862997
 31
0.0
  0
LINE
  5
980
330
1F
100
AcDbEntity
  8
0
100
AcDbLine
 10
28.55204750444792
 20
70.67581267329273
 30
0.0
 11
28.63006061545242
 21
70.75382578429723
 31
0.0
  0
LINE
  5
981
330
1F
100
AcDbEntity
  8
0
100
AcDbLine
 10
27.24399242745264
 20
69.37525292817803
 30
0.0
 11
27.53841877567853
 21
69.66967927640393
 31
0.0
  0
LINE
  5
982
330
1F
100
AcDbEntity
  8
0
100
AcDbLine
 10
28.11370986029298
 20
70.24497036101836
 30
0.0
 11
28.1658755149835
 21
70.29713601570889
 31
0.0
  0
LINE
  5
983
330
1F
100
AcDbEntity
  8
0
100
AcDbLine
 10
28.54929284507919
 20
70.68055334580457
 30
0.0
 11
28.62730595598232
 21
70.7585664567077
 31
0.0
  0
LINE
  5
984
330
1F
100
AcDbEntity
  8
0
100
AcDbLine
 10
27.25438867809307
 20
69.39314451069903
 30
0.0
 11
27.54881502150011
 21
69.68757085410607
 31
0.0
  0
LINE
  5
985
330
1F
100
AcDbEntity
  8
0
100
AcDbLine
 10
28.11170616989532
 20
70.25046200250128
 30
0.0
 11
28.16329065897359
 21
70.30204649157955
 31
0.0
  0
LINE
  5
986
330
1F
100
AcDbEntity
  8
0
100
AcDbLine
 10
28.54653818571045
 20
70.68529401831641
 30
0.0
 11
28.6245512965122
 21
70.76330712911816
 31
0.0
  0
LINE
  5
987
330
1F
100
AcDbEntity
  8
0
100
AcDbLine
 10
27.26478492873348
 20
69.41103609322002
 30
0.0
 11
27.55921126732168
 21
69.70546243180821
 31
0.0
  0
LINE
  5
988
330
1F
100
AcDbEntity
  8
0
100
AcDbLine
 10
28.10967829246371
 20
70.25592945695024
 30
0.0
 11
28.16067184873525
 21
70.30692301322179
 31
0.0
  0
LINE
  5
989
330
1F
100
AcDbEntity
  8
0
100
AcDbLine
 10
28.54378352634173
 20
70.69003469082827
 30
0.0
 11
28.62179663704208
 21
70.76804780152862
 31
0.0
  0
LINE
  5
98A
330
1F
100
AcDbEntity
  8
0
100
AcDbLine
 10
27.27518117937391
 20
69.42892767574104
 30
0.0
 11
27.56960751314326
 21
69.72335400951037
 31
0.0
  0
LINE
  5
98B
330
1F
100
AcDbEntity
  8
0
100
AcDbLine
 10
28.10749637808415
 20
70.26124287445127
 30
0.0
 11
28.15802487576489
 21
70.311771372132
 31
0.0
  0
LINE
  5
98C
330
1F
100
AcDbEntity
  8
0
100
AcDbLine
 10
28.54102886697299
 20
70.69477536334011
 30
0.0
 11
28.61904197757197
 21
70.77278847393909
 31
0.0
  0
LINE
  5
98D
330
1F
100
AcDbEntity
  8
0
100
AcDbLine
 10
27.28557743001434
 20
69.44681925826202
 30
0.0
 11
27.58000375896483
 21
69.74124558721252
 31
0.0
  0
LINE
  5
98E
330
1F
100
AcDbEntity
  8
0
100
AcDbLine
 10
28.10530790381819
 20
70.26654973206588
 30
0.0
 11
28.15534107412305
 21
70.31658290237074
 31
0.0
  0
LINE
  5
98F
330
1F
100
AcDbEntity
  8
0
100
AcDbLine
 10
28.53827420760426
 20
70.69951603585194
 30
0.0
 11
28.61628731810185
 21
70.77752914634954
 31
0.0
  0
LINE
  5
990
330
1F
100
AcDbEntity
  8
0
100
AcDbLine
 10
27.29597368065475
 20
69.46471084078301
 30
0.0
 11
27.59040000478641
 21
69.75913716491468
 31
0.0
  0
LINE
  5
991
330
1F
100
AcDbEntity
  8
0
100
AcDbLine
 10
28.10298426027379
 20
70.27172142040206
 30
0.0
 11
28.15264405978844
 21
70.3213812199167
 31
0.0
  0
LINE
  5
992
330
1F
100
AcDbEntity
  8
0
100
AcDbLine
 10
28.53551954823552
 20
70.70425670836379
 30
0.0
 11
28.61353265863174
 21
70.78226981876001
 31
0.0
  0
LINE
  5
993
330
1F
100
AcDbEntity
  8
0
100
AcDbLine
 10
27.30636993129518
 20
69.48260242330403
 30
0.0
 11
27.60079625060797
 21
69.77702874261682
 31
0.0
  0
LINE
  5
994
330
1F
100
AcDbEntity
  8
0
100
AcDbLine
 10
28.10065909573468
 20
70.27689158774352
 30
0.0
 11
28.14990949914628
 21
70.32614199115513
 31
0.0
  0
LINE
  5
995
330
1F
100
AcDbEntity
  8
0
100
AcDbLine
 10
28.53276488886679
 20
70.70899738087563
 30
0.0
 11
28.61077799916163
 21
70.78701049117048
 31
0.0
  0
LINE
  5
996
330
1F
100
AcDbEntity
  8
0
100
AcDbLine
 10
27.31676618193559
 20
69.500494005825
 30
0.0
 11
27.61119249642955
 21
69.79492032031898
 31
0.0
  0
LINE
  5
997
330
1F
100
AcDbEntity
  8
0
100
AcDbLine
 10
28.09822207345529
 20
70.28194989734472
 30
0.0
 11
28.14717254273223
 21
70.33090036662165
 31
0.0
  0
LINE
  5
998
330
1F
100
AcDbEntity
  8
0
100
AcDbLine
 10
28.53001022949806
 20
70.71373805338749
 30
0.0
 11
28.60802333969151
 21
70.79175116358094
 31
0.0
  0
LINE
  5
999
330
1F
100
AcDbEntity
  8
0
100
AcDbLine
 10
27.32716243257601
 20
69.518385588346
 30
0.0
 11
27.62158874225112
 21
69.81281189802112
 31
0.0
  0
LINE
  5
99A
330
1F
100
AcDbEntity
  8
0
100
AcDbLine
 10
28.09578117059274
 20
70.28700432636273
 30
0.0
 11
28.14440061013967
 21
70.33562376590967
 31
0.0
  0
LINE
  5
99B
330
1F
100
AcDbEntity
  8
0
100
AcDbLine
 10
28.52725557012931
 20
70.71847872589932
 30
0.0
 11
28.6052686802214
 21
70.79649183599139
 31
0.0
  0
LINE
  5
99C
330
1F
100
AcDbEntity
  8
0
100
AcDbLine
 10
27.33755868321644
 20
69.53627717086701
 30
0.0
 11
27.63198498807269
 21
69.83070347572327
 31
0.0
  0
LINE
  5
99D
330
1F
100
AcDbEntity
  8
0
100
AcDbLine
 10
28.09325307933539
 20
70.29197156698596
 30
0.0
 11
28.14162867754711
 21
70.34034716519768
 31
0.0
  0
LINE
  5
99E
330
1F
100
AcDbEntity
  8
0
100
AcDbLine
 10
28.52450091076059
 20
70.72321939841116
 30
0.0
 11
28.60251402075128
 21
70.80123250840185
 31
0.0
  0
LINE
  5
99F
330
1F
100
AcDbEntity
  8
0
100
AcDbLine
 10
27.34795493385685
 20
69.554168753388
 30
0.0
 11
27.64238123389426
 21
69.84859505342541
 31
0.0
  0
LINE
  5
9A0
330
1F
100
AcDbEntity
  8
0
100
AcDbLine
 10
28.09071505637003
 20
70.29692887590117
 30
0.0
 11
28.1388358300292
 21
70.34504964956035
 31
0.0
  0
LINE
  5
9A1
330
1F
100
AcDbEntity
  8
0
100
AcDbLine
 10
28.52174625139185
 20
70.727960070923
 30
0.0
 11
28.59975936128116
 21
70.80597318081232
 31
0.0
  0
LINE
  5
9A2
330
1F
100
AcDbEntity
  8
0
100
AcDbLine
 10
27.35835118449727
 20
69.572060335909
 30
0.0
 11
27.65277747971583
 21
69.86648663112756
 31
0.0
  0
LINE
  5
9A3
330
1F
100
AcDbEntity
  8
0
100
AcDbLine
 10
28.08811368448985
 20
70.30182283590159
 30
0.0
 11
28.13603930707158
 21
70.34974845848332
 31
0.0
  0
LINE
  5
9A4
330
1F
100
AcDbEntity
  8
0
100
AcDbLine
 10
28.51899159202313
 20
70.73270074343486
 30
0.0
 11
28.59700470181105
 21
70.81071385322278
 31
0.0
  0
LINE
  5
9A5
330
1F
100
AcDbEntity
  8
0
100
AcDbLine
 10
27.3687474351377
 20
69.58995191843
 30
0.0
 11
27.66317372553742
 21
69.88437820882973
 31
0.0
  0
LINE
  5
9A6
330
1F
100
AcDbEntity
  8
0
100
AcDbLine
 10
28.08549531669071
 20
70.30669979998302
 30
0.0
 11
28.13323515488874
 21
70.35443963818105
 31
0.0
  0
LINE
  5
9A7
330
1F
100
AcDbEntity
  8
0
100
AcDbLine
 10
28.51623693265439
 20
70.73744141594669
 30
0.0
 11
28.59425004234094
 21
70.81545452563324
 31
0.0
  0
LINE
  5
9A8
330
1F
100
AcDbEntity
  8
0
100
AcDbLine
 10
27.37914368577811
 20
69.60784350095099
 30
0.0
 11
27.67356997135899
 21
69.90226978653187
 31
0.0
  0
LINE
  5
9A9
330
1F
100
AcDbEntity
  8
0
100
AcDbLine
 10
28.08283504986354
 20
70.31153486503642
 30
0.0
 11
28.13042643251383
 21
70.35912624768672
 31
0.0
  0
LINE
  5
9AA
330
1F
100
AcDbEntity
  8
0
100
AcDbLine
 10
28.51348227328565
 20
70.74218208845853
 30
0.0
 11
28.59149538287081
 21
70.8201951980437
 31
0.0
  0
LINE
  5
9AB
330
1F
100
AcDbEntity
  8
0
100
AcDbLine
 10
27.38953993641853
 20
69.625735083472
 30
0.0
 11
27.68396621718056
 21
69.92016136423402
 31
0.0
  0
LINE
  5
9AC
330
1F
100
AcDbEntity
  8
0
100
AcDbLine
 10
28.08015166543971
 20
70.31634681249317
 30
0.0
 11
28.12571881112432
 21
70.36191395817778
 31
0.0
  0
LINE
  5
9AD
330
1F
100
AcDbEntity
  8
0
100
AcDbLine
 10
28.51072761391692
 20
70.74692276097038
 30
0.0
 11
28.58874072340071
 21
70.82493587045417
 31
0.0
  0
LINE
  5
9AE
330
1F
100
AcDbEntity
  8
0
100
AcDbLine
 10
27.39993618705896
 20
69.643626665993
 30
0.0
 11
27.69436246300213
 21
69.93805294193616
 31
0.0
  0
LINE
  5
9AF
330
1F
100
AcDbEntity
  8
0
100
AcDbLine
 10
28.07744432729456
 20
70.3211348062286
 30
0.0
 11
28.11809576431481
 21
70.36178624324886
 31
0.0
  0
LINE
  5
9B0
330
1F
100
AcDbEntity
  8
0
100
AcDbLine
 10
28.50797295454819
 20
70.75166343348224
 30
0.0
 11
28.58598606393059
 21
70.82967654286463
 31
0.0
  0
LINE
  5
9B1
330
1F
100
AcDbEntity
  8
0
100
AcDbLine
 10
27.41033243769938
 20
69.66151824851399
 30
0.0
 11
27.7047587088237
 21
69.95594451963832
 31
0.0
  0
LINE
  5
9B2
330
1F
100
AcDbEntity
  8
0
100
AcDbLine
 10
28.07471013381514
 20
70.32589594462976
 30
0.0
 11
28.1104727175053
 21
70.36165852831992
 31
0.0
  0
LINE
  5
9B3
330
1F
100
AcDbEntity
  8
0
100
AcDbLine
 10
28.50521829517946
 20
70.75640410599406
 30
0.0
 11
28.58323140446048
 21
70.8344172152751
 31
0.0
  0
LINE
  5
9B4
330
1F
100
AcDbEntity
  8
0
100
AcDbLine
 10
27.4207286883398
 20
69.67940983103499
 30
0.0
 11
27.71515495464529
 21
69.97383609734048
 31
0.0
  0
LINE
  5
9B5
330
1F
100
AcDbEntity
  8
0
100
AcDbLine
 10
28.07196563197038
 20
70.33064677466557
 30
0.0
 11
28.1028496706958
 21
70.36153081339098
 31
0.0
  0
LINE
  5
9B6
330
1F
100
AcDbEntity
  8
0
100
AcDbLine
 10
28.50246363581072
 20
70.76114477850591
 30
0.0
 11
28.58047674499035
 21
70.83915788768554
 31
0.0
  0
LINE
  5
9B7
330
1F
100
AcDbEntity
  8
0
100
AcDbLine
 10
27.43112493898022
 20
69.69730141355599
 30
0.0
 11
27.72555120046686
 21
69.99172767504263
 31
0.0
  0
LINE
  5
9B8
330
1F
100
AcDbEntity
  8
0
100
AcDbLine
 10
28.06919399211868
 20
70.33537046669446
 30
0.0
 11
28.09522662388628
 21
70.36140309846205
 31
0.0
  0
LINE
  5
9B9
330
1F
100
AcDbEntity
  8
0
100
AcDbLine
 10
28.49970897644199
 20
70.76588545101777
 30
0.0
 11
28.57772208552024
 21
70.84389856009601
 31
0.0
  0
LINE
  5
9BA
330
1F
100
AcDbEntity
  8
0
100
AcDbLine
 10
27.44152118962063
 20
69.71519299607698
 30
0.0
 11
27.73594744628843
 21
70.00961925274477
 31
0.0
  0
LINE
  5
9BB
330
1F
100
AcDbEntity
  8
0
100
AcDbLine
 10
28.06642082801164
 20
70.340092634468
 30
0.0
 11
28.08760357707678
 21
70.36127538353313
 31
0.0
  0
LINE
  5
9BC
330
1F
100
AcDbEntity
  8
0
100
AcDbLine
 10
28.49695431707326
 20
70.77062612352961
 30
0.0
 11
28.57496742605013
 21
70.84863923250647
 31
0.0
  0
LINE
  5
9BD
330
1F
100
AcDbEntity
  8
0
100
AcDbLine
 10
27.45191744026106
 20
69.73308457859798
 30
0.0
 11
27.74634369211
 21
70.02751083044691
 31
0.0
  0
LINE
  5
9BE
330
1F
100
AcDbEntity
  8
0
100
AcDbLine
 10
28.06362449899722
 20
70.34479163733414
 30
0.0
 11
28.07998053026726
 21
70.36114766860418
 31
0.0
  0
LINE
  5
9BF
330
1F
100
AcDbEntity
  8
0
100
AcDbLine
 10
28.49419965770452
 20
70.77536679604144
 30
0.0
 11
28.57221276658001
 21
70.85337990491693
 31
0.0
  0
LINE
  5
9C0
330
1F
100
AcDbEntity
  8
0
100
AcDbLine
 10
27.46231369090148
 20
69.75097616111898
 30
0.0
 11
27.75673993793157
 21
70.04540240814907
 31
0.0
  0
LINE
  5
9C1
330
1F
100
AcDbEntity
  8
0
100
AcDbLine
 10
28.0608281699828
 20
70.3494906402003
 30
0.0
 11
28.07235748345775
 21
70.36101995367525
 31
0.0
  0
LINE
  5
9C2
330
1F
100
AcDbEntity
  8
0
100
AcDbLine
 10
28.49144499833579
 20
70.78010746855328
 30
0.0
 11
28.5694581071099
 21
70.8581205773274
 31
0.0
  0
LINE
  5
9C3
330
1F
100
AcDbEntity
  8
0
100
AcDbLine
 10
27.47270994154189
 20
69.76886774363997
 30
0.0
 11
27.76713618375313
 21
70.0632939858512
 31
0.0
  0
LINE
  5
9C4
330
1F
100
AcDbEntity
  8
0
100
AcDbLine
 10
28.05802155429745
 20
70.35417935639552
 30
0.0
 11
28.06473443664824
 21
70.36089223874632
 31
0.0
  0
LINE
  5
9C5
330
1F
100
AcDbEntity
  8
0
100
AcDbLine
 10
28.48869033896705
 20
70.78484814106513
 30
0.0
 11
28.56670344763978
 21
70.86286124973786
 31
0.0
  0
LINE
  5
9C6
330
1F
100
AcDbEntity
  8
0
100
AcDbLine
 10
27.48310619218232
 20
69.78675932616098
 30
0.0
 11
27.77753242957472
 21
70.08118556355338
 31
0.0
  0
LINE
  5
9C7
330
1F
100
AcDbEntity
  8
0
100
AcDbLine
 10
28.05521292946037
 20
70.35886606343902
 30
0.0
 11
28.05711138983872
 21
70.36076452381738
 31
0.0
  0
LINE
  5
9C8
330
1F
100
AcDbEntity
  8
0
100
AcDbLine
 10
28.48593567959833
 20
70.78958881357698
 30
0.0
 11
28.56394878816968
 21
70.86760192214832
 31
0.0
  0
LINE
  5
9C9
330
1F
100
AcDbEntity
  8
0
100
AcDbLine
 10
27.49350244282273
 20
69.80465090868196
 30
0.0
 11
27.78792867539629
 21
70.09907714125552
 31
0.0
  0
LINE
  5
9CA
330
1F
100
AcDbEntity
  8
0
100
AcDbLine
 10
28.48318102022959
 20
70.79432948608881
 30
0.0
 11
28.56119412869956
 21
70.87234259455879
 31
0.0
  0
LINE
  5
9CB
330
1F
100
AcDbEntity
  8
0
100
AcDbLine
 10
27.50389869346316
 20
69.82254249120297
 30
0.0
 11
27.79832492121787
 21
70.11696871895768
 31
0.0
  0
LINE
  5
9CC
330
1F
100
AcDbEntity
  8
0
100
AcDbLine
 10
28.48042636086085
 20
70.79907015860066
 30
0.0
 11
28.55843946922944
 21
70.87708326696925
 31
0.0
  0
LINE
  5
9CD
330
1F
100
AcDbEntity
  8
0
100
AcDbLine
 10
27.51429494410358
 20
69.84043407372396
 30
0.0
 11
27.80872116703944
 21
70.13486029665982
 31
0.0
  0
LINE
  5
9CE
330
1F
100
AcDbEntity
  8
0
100
AcDbLine
 10
28.47767170149212
 20
70.8038108311125
 30
0.0
 11
28.55568480975933
 21
70.88182393937971
 31
0.0
  0
LINE
  5
9CF
330
1F
100
AcDbEntity
  8
0
100
AcDbLine
 10
27.524691194744
 20
69.85832565624496
 30
0.0
 11
27.819117412861
 21
70.15275187436197
 31
0.0
  0
LINE
  5
9D0
330
1F
100
AcDbEntity
  8
0
100
AcDbLine
 10
28.47491704212339
 20
70.80855150362436
 30
0.0
 11
28.55293015028922
 21
70.88656461179018
 31
0.0
  0
LINE
  5
9D1
330
1F
100
AcDbEntity
  8
0
100
AcDbLine
 10
27.53508744538443
 20
69.87621723876596
 30
0.0
 11
27.82951365868259
 21
70.17064345206413
 31
0.0
  0
LINE
  5
9D2
330
1F
100
AcDbEntity
  8
0
100
AcDbLine
 10
28.47216238275466
 20
70.81329217613619
 30
0.0
 11
28.55017549081909
 21
70.89130528420063
 31
0.0
  0
LINE
  5
9D3
330
1F
100
AcDbEntity
  8
0
100
AcDbLine
 10
27.54548369602485
 20
69.89410882128696
 30
0.0
 11
27.83990990450416
 21
70.18853502976627
 31
0.0
  0
LINE
  5
9D4
330
1F
100
AcDbEntity
  8
0
100
AcDbLine
 10
28.46940772338592
 20
70.81803284864803
 30
0.0
 11
28.54742083134898
 21
70.89604595661109
 31
0.0
  0
LINE
  5
9D5
330
1F
100
AcDbEntity
  8
0
100
AcDbLine
 10
27.55587994666526
 20
69.91200040380795
 30
0.0
 11
27.85030615032573
 21
70.20642660746842
 31
0.0
  0
LINE
  5
9D6
330
1F
100
AcDbEntity
  8
0
100
AcDbLine
 10
28.46665306401719
 20
70.82277352115987
 30
0.0
 11
28.54466617187886
 21
70.90078662902155
 31
0.0
  0
LINE
  5
9D7
330
1F
100
AcDbEntity
  8
0
100
AcDbLine
 10
27.56627619730569
 20
69.92989198632895
 30
0.0
 11
27.8607023961473
 21
70.22431818517056
 31
0.0
  0
LINE
  5
9D8
330
1F
100
AcDbEntity
  8
0
100
AcDbLine
 10
28.46389840464845
 20
70.82751419367172
 30
0.0
 11
28.54191151240876
 21
70.90552730143202
 31
0.0
  0
LINE
  5
9D9
330
1F
100
AcDbEntity
  8
0
100
AcDbLine
 10
27.5766724479461
 20
69.94778356884994
 30
0.0
 11
27.87109864196888
 21
70.24220976287272
 31
0.0
  0
LINE
  5
9DA
330
1F
100
AcDbEntity
  8
0
100
AcDbLine
 10
28.46114374527972
 20
70.83225486618356
 30
0.0
 11
28.53915685293864
 21
70.91026797384248
 31
0.0
  0
LINE
  5
9DB
330
1F
100
AcDbEntity
  8
0
100
AcDbLine
 10
27.58706869858652
 20
69.96567515137095
 30
0.0
 11
27.88149488779045
 21
70.26010134057486
 31
0.0
  0
LINE
  5
9DC
330
1F
100
AcDbEntity
  8
0
100
AcDbLine
 10
28.45838908591099
 20
70.8369955386954
 30
0.0
 11
28.53640219346852
 21
70.91500864625294
 31
0.0
  0
LINE
  5
9DD
330
1F
100
AcDbEntity
  8
0
100
AcDbLine
 10
27.59746494922695
 20
69.98356673389195
 30
0.0
 11
27.89189113361202
 21
70.27799291827702
 31
0.0
  0
LINE
  5
9DE
330
1F
100
AcDbEntity
  8
0
100
AcDbLine
 10
28.45563442654226
 20
70.84173621120726
 30
0.0
 11
28.53364753399841
 21
70.9197493186634
 31
0.0
  0
LINE
  5
9DF
330
1F
100
AcDbEntity
  8
0
100
AcDbLine
 10
27.60786119986737
 20
70.00145831641294
 30
0.0
 11
27.9022873794336
 21
70.29588449597917
 31
0.0
  0
LINE
  5
9E0
330
1F
100
AcDbEntity
  8
0
100
AcDbLine
 10
28.45287976717353
 20
70.8464768837191
 30
0.0
 11
28.5308928745283
 21
70.92448999107387
 31
0.0
  0
LINE
  5
9E1
330
1F
100
AcDbEntity
  8
0
100
AcDbLine
 10
27.61825745050779
 20
70.01934989893394
 30
0.0
 11
27.91268362525516
 21
70.31377607368131
 31
0.0
  0
LINE
  5
9E2
330
1F
100
AcDbEntity
  8
0
100
AcDbLine
 10
28.45012510780479
 20
70.85121755623094
 30
0.0
 11
28.52813821505818
 21
70.92923066348433
 31
0.0
  0
LINE
  5
9E3
330
1F
100
AcDbEntity
  8
0
100
AcDbLine
 10
27.62865370114821
 20
70.03724148145493
 30
0.0
 11
27.92307987107674
 21
70.33166765138347
 31
0.0
  0
LINE
  5
9E4
330
1F
100
AcDbEntity
  8
0
100
AcDbLine
 10
28.44737044843606
 20
70.8559582287428
 30
0.0
 11
28.52538355558806
 21
70.93397133589478
 31
0.0
  0
LINE
  5
9E5
330
1F
100
AcDbEntity
  8
0
100
AcDbLine
 10
27.63904995178863
 20
70.05513306397593
 30
0.0
 11
27.93347611689831
 21
70.34955922908561
 31
0.0
  0
LINE
  5
9E6
330
1F
100
AcDbEntity
  8
0
100
AcDbLine
 10
28.44461578906732
 20
70.86069890125462
 30
0.0
 11
28.52262889611794
 21
70.93871200830525
 31
0.0
  0
LINE
  5
9E7
330
1F
100
AcDbEntity
  8
0
100
AcDbLine
 10
27.64944620242905
 20
70.07302464649693
 30
0.0
 11
27.94387236271989
 21
70.36745080678777
 31
0.0
  0
LINE
  5
9E8
330
1F
100
AcDbEntity
  8
0
100
AcDbLine
 10
28.44186112969859
 20
70.86543957376648
 30
0.0
 11
28.51987423664784
 21
70.94345268071572
 31
0.0
  0
LINE
  5
9E9
330
1F
100
AcDbEntity
  8
0
100
AcDbLine
 10
27.65984245306947
 20
70.09091622901792
 30
0.0
 11
27.95426860854147
 21
70.38534238448993
 31
0.0
  0
LINE
  5
9EA
330
1F
100
AcDbEntity
  8
0
100
AcDbLine
 10
28.43910647032986
 20
70.87018024627831
 30
0.0
 11
28.51711957717772
 21
70.94819335312619
 31
0.0
  0
LINE
  5
9EB
330
1F
100
AcDbEntity
  8
0
100
AcDbLine
 10
27.67023870370989
 20
70.10880781153892
 30
0.0
 11
27.96466485436304
 21
70.40323396219208
 31
0.0
  0
LINE
  5
9EC
330
1F
100
AcDbEntity
  8
0
100
AcDbLine
 10
28.43635181096113
 20
70.87492091879017
 30
0.0
 11
28.51436491770761
 21
70.95293402553663
 31
0.0
  0
LINE
  5
9ED
330
1F
100
AcDbEntity
  8
0
100
AcDbLine
 10
27.68063495435031
 20
70.12669939405993
 30
0.0
 11
27.97506110018461
 21
70.42112553989422
 31
0.0
  0
LINE
  5
9EE
330
1F
100
AcDbEntity
  8
0
100
AcDbLine
 10
28.43359715159239
 20
70.87966159130201
 30
0.0
 11
28.51161025823749
 21
70.9576746979471
 31
0.0
  0
LINE
  5
9EF
330
1F
100
AcDbEntity
  8
0
100
AcDbLine
 10
27.69103120499073
 20
70.14459097658091
 30
0.0
 11
27.98545734600618
 21
70.43901711759636
 31
0.0
  0
LINE
  5
9F0
330
1F
100
AcDbEntity
  8
0
100
AcDbLine
 10
28.43084249222366
 20
70.88440226381385
 30
0.0
 11
28.50885559876738
 21
70.96241537035758
 31
0.0
  0
LINE
  5
9F1
330
1F
100
AcDbEntity
  8
0
100
AcDbLine
 10
27.70142745563115
 20
70.16248255910192
 30
0.0
 11
27.99585359182775
 21
70.45690869529852
 31
0.0
  0
LINE
  5
9F2
330
1F
100
AcDbEntity
  8
0
100
AcDbLine
 10
28.42808783285492
 20
70.88914293632568
 30
0.0
 11
28.50610093929727
 21
70.96715604276804
 31
0.0
  0
LINE
  5
9F3
330
1F
100
AcDbEntity
  8
0
100
AcDbLine
 10
27.71182370627157
 20
70.18037414162292
 30
0.0
 11
28.00624983764933
 21
70.47480027300067
 31
0.0
  0
LINE
  5
9F4
330
1F
100
AcDbEntity
  8
0
100
AcDbLine
 10
28.42533317348619
 20
70.89388360883753
 30
0.0
 11
28.50334627982715
 21
70.97189671517849
 31
0.0
  0
LINE
  5
9F5
330
1F
100
AcDbEntity
  8
0
100
AcDbLine
 10
27.722219956912
 20
70.19826572414391
 30
0.0
 11
28.0166460834709
 21
70.49269185070281
 31
0.0
  0
LINE
  5
9F6
330
1F
100
AcDbEntity
  8
0
100
AcDbLine
 10
28.42257851411746
 20
70.89862428134938
 30
0.0
 11
28.50059162035704
 21
70.97663738758895
 31
0.0
  0
LINE
  5
9F7
330
1F
100
AcDbEntity
  8
0
100
AcDbLine
 10
27.73261620755241
 20
70.21615730666491
 30
0.0
 11
28.02704232929247
 21
70.51058342840496
 31
0.0
  0
LINE
  5
9F8
330
1F
100
AcDbEntity
  8
0
100
AcDbLine
 10
28.41982385474873
 20
70.90336495386123
 30
0.0
 11
28.49783696088692
 21
70.98137805999941
 31
0.0
  0
LINE
  5
9F9
330
1F
100
AcDbEntity
  8
0
100
AcDbLine
 10
27.74301245819284
 20
70.23404888918591
 30
0.0
 11
28.03743857511405
 21
70.52847500610712
 31
0.0
  0
LINE
  5
9FA
330
1F
100
AcDbEntity
  8
0
100
AcDbLine
 10
28.41706919537999
 20
70.90810562637306
 30
0.0
 11
28.4950823014168
 21
70.98611873240988
 31
0.0
  0
LINE
  5
9FB
330
1F
100
AcDbEntity
  8
0
100
AcDbLine
 10
27.75340870883326
 20
70.2519404717069
 30
0.0
 11
28.04783482093561
 21
70.54636658380926
 31
0.0
  0
LINE
  5
9FC
330
1F
100
AcDbEntity
  8
0
100
AcDbLine
 10
28.41431453601125
 20
70.9128462988849
 30
0.0
 11
28.49232764194668
 21
70.99085940482033
 31
0.0
  0
LINE
  5
9FD
330
1F
100
AcDbEntity
  8
0
100
AcDbLine
 10
27.76380495947368
 20
70.2698320542279
 30
0.0
 11
28.05823106675719
 21
70.56425816151142
 31
0.0
  0
LINE
  5
9FE
330
1F
100
AcDbEntity
  8
0
100
AcDbLine
 10
28.41155987664253
 20
70.91758697139676
 30
0.0
 11
28.4894595603474
 21
70.99548665510163
 31
0.0
  0
LINE
  5
9FF
330
1F
100
AcDbEntity
  8
0
100
AcDbLine
 10
27.7742012101141
 20
70.28772363674891
 30
0.0
 11
28.06862731257876
 21
70.58214973921356
 31
0.0
  0
LINE
  5
A00
330
1F
100
AcDbEntity
  8
0
100
AcDbLine
 10
28.40880521727378
 20
70.92232764390859
 30
0.0
 11
28.48651672232502
 21
71.00003914895981
 31
0.0
  0
LINE
  5
A01
330
1F
100
AcDbEntity
  8
0
100
AcDbLine
 10
27.78459746075452
 20
70.3056152192699
 30
0.0
 11
28.07902355840033
 21
70.6000413169157
 31
0.0
  0
LINE
  5
A02
330
1F
100
AcDbEntity
  8
0
100
AcDbLine
 10
28.40605055790506
 20
70.92706831642043
 30
0.0
 11
28.48357388430265
 21
71.00459164281803
 31
0.0
  0
LINE
  5
A03
330
1F
100
AcDbEntity
  8
0
100
AcDbLine
 10
27.79499371139494
 20
70.3235068017909
 30
0.0
 11
28.08941980422192
 21
70.61793289461788
 31
0.0
  0
LINE
  5
A04
330
1F
100
AcDbEntity
  8
0
100
AcDbLine
 10
28.40329589853633
 20
70.93180898893229
 30
0.0
 11
28.48045151585161
 21
71.00896460624756
 31
0.0
  0
LINE
  5
A05
330
1F
100
AcDbEntity
  8
0
100
AcDbLine
 10
27.80538996203536
 20
70.3413983843119
 30
0.0
 11
28.09981605004348
 21
70.63582447232001
 31
0.0
  0
LINE
  5
A06
330
1F
100
AcDbEntity
  8
0
100
AcDbLine
 10
28.40054123916759
 20
70.93654966144413
 30
0.0
 11
28.47714279926254
 21
71.01315122153908
 31
0.0
  0
LINE
  5
A07
330
1F
100
AcDbEntity
  8
0
100
AcDbLine
 10
27.81578621267577
 20
70.35928996683289
 30
0.0
 11
28.11021229586505
 21
70.65371605002217
 31
0.0
  0
LINE
  5
A08
330
1F
100
AcDbEntity
  8
0
100
AcDbLine
 10
28.39765462730625
 20
70.94115838146335
 30
0.0
 11
28.47383408267347
 21
71.01733783683059
 31
0.0
  0
LINE
  5
A09
330
1F
100
AcDbEntity
  8
0
100
AcDbLine
 10
27.8261824633162
 20
70.37718154935389
 30
0.0
 11
28.12060854168663
 21
70.67160762772433
 31
0.0
  0
LINE
  5
A0A
330
1F
100
AcDbEntity
  8
0
100
AcDbLine
 10
28.39460602420712
 20
70.9456051102448
 30
0.0
 11
28.47040754539312
 21
71.0214066314308
 31
0.0
  0
LINE
  5
A0B
330
1F
100
AcDbEntity
  8
0
100
AcDbLine
 10
27.83657871395662
 20
70.39507313187488
 30
0.0
 11
28.1310047875082
 21
70.68949920542647
 31
0.0
  0
LINE
  5
A0C
330
1F
100
AcDbEntity
  8
0
100
AcDbLine
 10
28.39128344356272
 20
70.94977786148098
 30
0.0
 11
28.46674102240837
 21
71.02523544032664
 31
0.0
  0
LINE
  5
A0D
330
1F
100
AcDbEntity
  8
0
100
AcDbLine
 10
27.84697496459704
 20
70.41296471439588
 30
0.0
 11
28.14140103332977
 21
70.70739078312862
 31
0.0
  0
LINE
  5
A0E
330
1F
100
AcDbEntity
  8
0
100
AcDbLine
 10
28.3876677937657
 20
70.95365754356455
 30
0.0
 11
28.46307449942362
 21
71.02906424922246
 31
0.0
  0
LINE
  5
A0F
330
1F
100
AcDbEntity
  8
0
100
AcDbLine
 10
27.85737121523747
 20
70.43085629691689
 30
0.0
 11
28.15179727915135
 21
70.72528236083076
 31
0.0
  0
LINE
  5
A10
330
1F
100
AcDbEntity
  8
0
100
AcDbLine
 10
28.38378015756577
 20
70.95726523924519
 30
0.0
 11
28.45935558678606
 21
71.03284066846548
 31
0.0
  0
LINE
  5
A11
330
1F
100
AcDbEntity
  8
0
100
AcDbLine
 10
27.86776746587788
 20
70.44874787943787
 30
0.0
 11
28.16219352497292
 21
70.74317393853292
 31
0.0
  0
LINE
  5
A12
330
1F
100
AcDbEntity
  8
0
100
AcDbLine
 10
28.37960343465522
 20
70.96058384821522
 30
0.0
 11
28.45533272992405
 21
71.03631314348405
 31
0.0
  0
LINE
  5
A13
330
1F
100
AcDbEntity
  8
0
100
AcDbLine
 10
27.87816371651831
 20
70.46663946195888
 30
0.0
 11
28.1725897707945
 21
70.76106551623506
 31
0.0
  0
LINE
  5
A14
330
1F
100
AcDbEntity
  8
0
100
AcDbLine
 10
28.3751374570416
 20
70.96361320248218
 30
0.0
 11
28.45130987306204
 21
71.03978561850262
 31
0.0
  0
LINE
  5
A15
330
1F
100
AcDbEntity
  8
0
100
AcDbLine
 10
27.88855996715873
 20
70.48453104447988
 30
0.0
 11
28.18298601661607
 21
70.77895709393721
 31
0.0
  0
LINE
  5
A16
330
1F
100
AcDbEntity
  8
0
100
AcDbLine
 10
28.37038001130554
 20
70.9663510886267
 30
0.0
 11
28.44728701620003
 21
71.04325809352117
 31
0.0
  0
LINE
  5
A17
330
1F
100
AcDbEntity
  8
0
100
AcDbLine
 10
27.89895621779914
 20
70.50242262700087
 30
0.0
 11
28.19338226243763
 21
70.79684867163935
 31
0.0
  0
LINE
  5
A18
330
1F
100
AcDbEntity
  8
0
100
AcDbLine
 10
28.36526530296284
 20
70.96873171216457
 30
0.0
 11
28.4429127211759
 21
71.04637913037762
 31
0.0
  0
LINE
  5
A19
330
1F
100
AcDbEntity
  8
0
100
AcDbLine
 10
27.90935246843957
 20
70.52031420952187
 30
0.0
 11
28.20377850825921
 21
70.81474024934151
 31
0.0
  0
LINE
  5
A1A
330
1F
100
AcDbEntity
  8
0
100
AcDbLine
 10
28.3598781075104
 20
70.9708398485927
 30
0.0
 11
28.43852851168996
 21
71.04949025277227
 31
0.0
  0
LINE
  5
A1B
330
1F
100
AcDbEntity
  8
0
100
AcDbLine
 10
27.91974871907999
 20
70.53820579204287
 30
0.0
 11
28.21417475408078
 21
70.83263182704366
 31
0.0
  0
LINE
  5
A1C
330
1F
100
AcDbEntity
  8
0
100
AcDbLine
 10
28.35396266281039
 20
70.97241973577327
 30
0.0
 11
28.43414430220403
 21
71.05260137516692
 31
0.0
  0
LINE
  5
A1D
330
1F
100
AcDbEntity
  8
0
100
AcDbLine
 10
27.93014496972041
 20
70.55609737456386
 30
0.0
 11
28.22457099990236
 21
70.85052340474581
 31
0.0
  0
LINE
  5
A1E
330
1F
100
AcDbEntity
  8
0
100
AcDbLine
 10
28.34781989371656
 20
70.97377229856002
 30
0.0
 11
28.42944862876891
 21
71.05540103361236
 31
0.0
  0
LINE
  5
A1F
330
1F
100
AcDbEntity
  8
0
100
AcDbLine
 10
27.94054122036083
 20
70.57398895708486
 30
0.0
 11
28.23496724572394
 21
70.86841498244797
 31
0.0
  0
LINE
  5
A20
330
1F
100
AcDbEntity
  8
0
100
AcDbLine
 10
28.34084580150173
 20
70.97429353822577
 30
0.0
 11
28.42469118442686
 21
71.0581389211509
 31
0.0
  0
LINE
  5
A21
330
1F
100
AcDbEntity
  8
0
100
AcDbLine
 10
27.95093747100126
 20
70.59188053960587
 30
0.0
 11
28.24536349154551
 21
70.88630656015012
 31
0.0
  0
LINE
  5
A22
330
1F
100
AcDbEntity
  8
0
100
AcDbLine
 10
28.33327751409572
 20
70.97422058270033
 30
0.0
 11
28.41993374008481
 21
71.06087680868943
 31
0.0
  0
LINE
  5
A23
330
1F
100
AcDbEntity
  8
0
100
AcDbLine
 10
27.96133372164167
 20
70.60977212212686
 30
0.0
 11
28.25575973736708
 21
70.90419813785226
 31
0.0
  0
LINE
  5
A24
330
1F
100
AcDbEntity
  8
0
100
AcDbLine
 10
28.32481960173761
 20
70.97325800222279
 30
0.0
 11
28.41487726489902
 21
71.06331566538421
 31
0.0
  0
LINE
  5
A25
330
1F
100
AcDbEntity
  8
0
100
AcDbLine
 10
27.9717299722821
 20
70.62766370464786
 30
0.0
 11
28.26615598318865
 21
70.92208971555442
 31
0.0
  0
LINE
  5
A26
330
1F
100
AcDbEntity
  8
0
100
AcDbLine
 10
28.31470345505063
 20
70.97063718741639
 30
0.0
 11
28.40972692703597
 21
71.06566065940173
 31
0.0
  0
LINE
  5
A27
330
1F
100
AcDbEntity
  8
0
100
AcDbLine
 10
27.98212622292251
 20
70.64555528716885
 30
0.0
 11
28.27682449715866
 21
70.940253561405
 31
0.0
  0
LINE
  5
A28
330
1F
100
AcDbEntity
  8
0
100
AcDbLine
 10
28.30048529220574
 20
70.96391435645208
 30
0.0
 11
28.40457658917293
 21
71.06800565341926
 31
0.0
  0
LINE
  5
A29
330
1F
100
AcDbEntity
  8
0
100
AcDbLine
 10
27.99252247356293
 20
70.66344686968985
 30
0.0
 11
28.39909711948847
 21
71.0700215156154
 31
0.0
  0
LINE
  5
A2A
330
1F
100
AcDbEntity
  8
0
100
AcDbLine
 10
28.00291872420335
 20
70.68133845221084
 30
0.0
 11
28.39352484454582
 21
71.0719445725533
 31
0.0
  0
LINE
  5
A2B
330
1F
100
AcDbEntity
  8
0
100
AcDbLine
 10
28.01331497484377
 20
70.69923003473184
 30
0.0
 11
28.38795256960315
 21
71.07386762949122
 31
0.0
  0
LINE
  5
A2C
330
1F
100
AcDbEntity
  8
0
100
AcDbLine
 10
28.02371122548419
 20
70.71712161725284
 30
0.0
 11
28.38195519731638
 21
71.07536558908502
 31
0.0
  0
LINE
  5
A2D
330
1F
100
AcDbEntity
  8
0
100
AcDbLine
 10
28.03410747612461
 20
70.73501319977383
 30
0.0
 11
28.37591995619303
 21
71.07682567984226
 31
0.0
  0
LINE
  5
A2E
330
1F
100
AcDbEntity
  8
0
100
AcDbLine
 10
28.04450372676503
 20
70.75290478229482
 30
0.0
 11
28.3697799946568
 21
71.0781810501866
 31
0.0
  0
LINE
  5
A2F
330
1F
100
AcDbEntity
  8
0
100
AcDbLine
 10
28.05489997740546
 20
70.77079636481584
 30
0.0
 11
28.36322464078414
 21
71.0791210281945
 31
0.0
  0
LINE
  5
A30
330
1F
100
AcDbEntity
  8
0
100
AcDbLine
 10
28.06529622804588
 20
70.78868794733683
 30
0.0
 11
28.35666928691148
 21
71.08006100620243
 31
0.0
  0
LINE
  5
A31
330
1F
100
AcDbEntity
  8
0
100
AcDbLine
 10
28.07569247868629
 20
70.80657952985781
 30
0.0
 11
28.34972155024538
 21
71.08060860141691
 31
0.0
  0
LINE
  5
A32
330
1F
100
AcDbEntity
  8
0
100
AcDbLine
 10
28.08608872932672
 20
70.82447111237883
 30
0.0
 11
28.34256616477438
 21
71.08094854782648
 31
0.0
  0
LINE
  5
A33
330
1F
100
AcDbEntity
  8
0
100
AcDbLine
 10
28.09648497996714
 20
70.84236269489982
 30
0.0
 11
28.33519739770375
 21
71.08107511263643
 31
0.0
  0
LINE
  5
A34
330
1F
100
AcDbEntity
  8
0
100
AcDbLine
 10
28.10688123060756
 20
70.86025427742082
 30
0.0
 11
28.32732820985719
 21
71.08070125667045
 31
0.0
  0
LINE
  5
A35
330
1F
100
AcDbEntity
  8
0
100
AcDbLine
 10
28.11727748124798
 20
70.87814585994182
 30
0.0
 11
28.3193202460437
 21
71.08018862473754
 31
0.0
  0
LINE
  5
A36
330
1F
100
AcDbEntity
  8
0
100
AcDbLine
 10
28.12767373188839
 20
70.89603744246281
 30
0.0
 11
28.31057024697822
 21
71.07893395755264
 31
0.0
  0
LINE
  5
A37
330
1F
100
AcDbEntity
  8
0
100
AcDbLine
 10
28.13806998252882
 20
70.91392902498382
 30
0.0
 11
28.30153695505312
 21
71.0773959975081
 31
0.0
  0
LINE
  5
A38
330
1F
100
AcDbEntity
  8
0
100
AcDbLine
 10
28.14846623316923
 20
70.9318206075048
 30
0.0
 11
28.29164960474725
 21
71.07500397908281
 31
0.0
  0
LINE
  5
A39
330
1F
100
AcDbEntity
  8
0
100
AcDbLine
 10
28.15886248380966
 20
70.9497121900258
 30
0.0
 11
28.28084202105874
 21
71.07169172727488
 31
0.0
  0
LINE
  5
A3A
330
1F
100
AcDbEntity
  8
0
100
AcDbLine
 10
28.16925873445009
 20
70.96760377254681
 30
0.0
 11
28.26893980659343
 21
71.06728484469015
 31
0.0
  0
LINE
  5
A3B
330
1F
100
AcDbEntity
  8
0
100
AcDbLine
 10
28.1796549850905
 20
70.9854953550678
 30
0.0
 11
28.2548610971323
 21
71.0607014671096
 31
0.0
  0
LINE
  5
A3C
330
1F
100
AcDbEntity
  8
0
100
AcDbLine
 10
28.19201868749461
 20
71.00535438935249
 30
0.0
 11
28.23513684672713
 21
71.048472548585
 31
0.0
  0
ENDSEC
  0
SECTION
  2
OBJECTS
  0
DICTIONARY
  5
C
330
0
100
AcDbDictionary
281
     1
  3
ACAD_COLOR
350
6C
  3
ACAD_GROUP
350
D
  3
ACAD_LAYOUT
350
1A
  3
ACAD_MATERIAL
350
6B
  3
ACAD_MLEADERSTYLE
350
271
  3
ACAD_MLINESTYLE
350
17
  3
ACAD_PLOTSETTINGS
350
19
  3
ACAD_PLOTSTYLENAME
350
E
  3
ACAD_SCALELIST
350
3B
  3
ACAD_TABLESTYLE
350
92
  3
ACAD_VISUALSTYLE
350
2A
  3
AcDbVariableDictionary
350
59
  0
DICTIONARY
  5
6C
102
{ACAD_REACTORS
330
C
102
}
330
C
100
AcDbDictionary
281
     1
  0
DICTIONARY
  5
D
102
{ACAD_REACTORS
330
C
102
}
330
C
100
AcDbDictionary
281
     1
  0
DICTIONARY
  5
1A
102
{ACAD_REACTORS
330
C
102
}
330
C
100
AcDbDictionary
281
     1
  3
Layout1
350
74
  3
Layout2
350
26
  3
Model
350
22
  0
DICTIONARY
  5
6B
102
{ACAD_REACTORS
330
C
102
}
330
C
100
AcDbDictionary
281
     1
  0
DICTIONARY
  5
271
102
{ACAD_REACTORS
330
C
102
}
330
C
100
AcDbDictionary
281
     1
  0
DICTIONARY
  5
17
102
{ACAD_REACTORS
330
C
102
}
330
C
100
AcDbDictionary
281
     1
  3
Standard
350
18
  0
DICTIONARY
  5
19
102
{ACAD_REACTORS
330
C
102
}
330
C
100
AcDbDictionary
281
     1
  0
ACDBDICTIONARYWDFLT
  5
E
102
{ACAD_REACTORS
330
C
102
}
330
C
100
AcDbDictionary
281
     1
  3
Normal
350
F
100
AcDbDictionaryWithDefault
340
F
  0
DICTIONARY
  5
3B
102
{ACAD_REACTORS
330
C
102
}
330
C
100
AcDbDictionary
281
     1
  3
A0
350
3C
  3
A1
350
3D
  3
A2
350
3E
  3
A3
350
3F
  3
A4
350
40
  3
A5
350
41
  3
A6
350
42
  3
A7
350
43
  3
A8
350
44
  3
A9
350
45
  3
B0
350
46
  3
B1
350
47
  3
B2
350
48
  3
B3
350
49
  3
B4
350
4A
  3
B5
350
4B
  3
B6
350
4C
  3
B7
350
4D
  3
B8
350
4E
  3
B9
350
4F
  3
C0
350
50
  3
C1
350
51
  3
C2
350
52
  3
C3
350
53
  3
C4
350
54
  3
C5
350
55
  3
C6
350
56
  3
C7
350
57
  3
C8
350
58
  3
C9
350
566
  3
D0
350
567
  3
D1
350
5B
  3
D2
350
5C
  0
DICTIONARY
  5
92
102
{ACAD_REACTORS
330
C
102
}
330
C
100
AcDbDictionary
281
     1
  0
DICTIONARY
  5
2A
102
{ACAD_REACTORS
330
C
102
}
330
C
100
AcDbDictionary
281
     1
  3
2DWIREFRAME
350
2F
  3
3D HIDDEN
350
31
  3
3DWIREFRAME
350
30
  3
BASIC
350
32
  3
BRIGHTEN
350
36
  3
COLORCHANGE
350
3A
  3
CONCEPTUAL
350
34
  3
DIM
350
35
  3
FACEPATTERN
350
39
  3
FLAT
350
2B
  3
FLATWITHEDGES
350
2C
  3
GOURAUD
350
2D
  3
GOURAUDWITHEDGES
350
2E
  3
LINEPATTERN
350
38
  3
REALISTIC
350
33
  3
THICKEN
350
37
  0
DICTIONARY
  5
59
102
{ACAD_REACTORS
330
C
102
}
330
C
100
AcDbDictionary
281
     1
  3
CANNOSCALE
350
26F
  3
PSOLHEIGHT
350
56A
  3
PSOLWIDTH
350
272
  0
LAYOUT
  5
74
102
{ACAD_REACTORS
330
1A
102
}
330
1A
100
AcDbPlotSettings
  1

  2
none_device
  4

  6

 40
0.0
 41
0.0
 42
0.0
 43
0.0
 44
0.0
 45
0.0
 46
0.0
 47
0.0
 48
0.0
 49
0.0
140
0.0
141
0.0
142
1.0
143
1.0
 70
   688
 72
     0
 73
     0
 74
     5
  7

 75
    16
 76
     0
 77
     2
 78
   300
147
1.0
148
0.0
149
0.0
100
AcDbLayout
  1
Layout1
 70
     1
 71
     1
 10
0.0
 20
0.0
 11
420.0
 21
297.0
 12
0.0
 22
0.0
 32
0.0
 14
1.000000000000000E+20
 24
1.000000000000000E+20
 34
1.000000000000000E+20
 15
-1.000000000000000E+20
 25
-1.000000000000000E+20
 35
-1.000000000000000E+20
146
0.0
 13
0.0
 23
0.0
 33
0.0
 16
1.0
 26
0.0
 36
0.0
 17
0.0
 27
1.0
 37
0.0
 76
     0
330
73
  0
LAYOUT
  5
26
102
{ACAD_REACTORS
330
1A
102
}
330
1A
100
AcDbPlotSettings
  1

  2
none_device
  4

  6

 40
0.0
 41
0.0
 42
0.0
 43
0.0
 44
0.0
 45
0.0
 46
0.0
 47
0.0
 48
0.0
 49
0.0
140
0.0
141
0.0
142
1.0
143
1.0
 70
   688
 72
     0
 73
     0
 74
     5
  7

 75
    16
 76
     0
 77
     2
 78
   300
147
1.0
148
0.0
149
0.0
100
AcDbLayout
  1
Layout2
 70
     1
 71
     2
 10
0.0
 20
0.0
 11
0.0
 21
0.0
 12
0.0
 22
0.0
 32
0.0
 14
0.0
 24
0.0
 34
0.0
 15
0.0
 25
0.0
 35
0.0
146
0.0
 13
0.0
 23
0.0
 33
0.0
 16
1.0
 26
0.0
 36
0.0
 17
0.0
 27
1.0
 37
0.0
 76
     0
330
23
  0
LAYOUT
  5
22
102
{ACAD_REACTORS
330
1A
102
}
330
1A
100
AcDbPlotSettings
  1

  2
none_device
  4

  6

 40
0.0
 41
0.0
 42
0.0
 43
0.0
 44
0.0
 45
0.0
 46
0.0
 47
0.0
 48
0.0
 49
0.0
140
0.0
141
0.0
142
1.0
143
1.0
 70
 11952
 72
     0
 73
     0
 74
     0
  7

 75
     0
 76
     0
 77
     2
 78
   300
147
1.0
148
0.0
149
0.0
100
AcDbLayout
  1
Model
 70
     1
 71
     0
 10
0.0
 20
0.0
 11
90.0
 21
90.0
 12
0.0
 22
0.0
 32
0.0
 14
22.67191985125303
 24
61.50943527869787
 34
0.0
 15
34.00317958997735
 25
71.50777487536591
 35
0.0
146
0.0
 13
0.0
 23
0.0
 33
0.0
 16
1.0
 26
0.0
 36
0.0
 17
0.0
 27
1.0
 37
0.0
 76
     0
330
1F
  0
MLINESTYLE
  5
18
102
{ACAD_REACTORS
330
17
102
}
330
17
100
AcDbMlineStyle
  2
Standard
 70
     0
  3

 62
   256
 51
90.0
 52
90.0
 71
     2
 49
0.5
 62
   256
  6
BYLAYER
 49
-0.5
 62
   256
  6
BYLAYER
  0
ACDBPLACEHOLDER
  5
F
102
{ACAD_REACTORS
330
E
102
}
330
E
  0
ACAD_PROXY_OBJECT
  5
3C
102
{ACAD_REACTORS
330
3B
102
}
330
3B
100
AcDbProxyObject
 90
      499
 91
      505
 95
   393239
 70
     0
 93
       41
310
903313A31580
  0
ACAD_PROXY_OBJECT
  5
3D
102
{ACAD_REACTORS
330
3B
102
}
330
3B
100
AcDbProxyObject
 90
      499
 91
      505
 95
   393239
 70
     0
 93
      105
310
903313A324000000000000004000
  0
ACAD_PROXY_OBJECT
  5
3E
102
{ACAD_REACTORS
330
3B
102
}
330
3B
100
AcDbProxyObject
 90
      499
 91
      505
 95
   393239
 70
     0
 93
      105
310
903313A344000000000000104000
  0
ACAD_PROXY_OBJECT
  5
3F
102
{ACAD_REACTORS
330
3B
102
}
330
3B
100
AcDbProxyObject
 90
      499
 91
      505
 95
   393239
 70
     0
 93
      105
310
903313A354000000000000144000
  0
ACAD_PROXY_OBJECT
  5
40
102
{ACAD_REACTORS
330
3B
102
}
330
3B
100
AcDbProxyObject
 90
      499
 91
      505
 95
   393239
 70
     0
 93
      105
310
903313A384000000000000204000
  0
ACAD_PROXY_OBJECT
  5
41
102
{ACAD_REACTORS
330
3B
102
}
330
3B
100
AcDbProxyObject
 90
      499
 91
      505
 95
   393239
 70
     0
 93
      113
310
904313A31304000000000000244000
  0
ACAD_PROXY_OBJECT
  5
42
102
{ACAD_REACTORS
330
3B
102
}
330
3B
100
AcDbProxyObject
 90
      499
 91
      505
 95
   393239
 70
     0
 93
      113
310
904313A31364000000000000304000
  0
ACAD_PROXY_OBJECT
  5
43
102
{ACAD_REACTORS
330
3B
102
}
330
3B
100
AcDbProxyObject
 90
      499
 91
      505
 95
   393239
 70
     0
 93
      113
310
904313A32304000000000000344000
  0
ACAD_PROXY_OBJECT
  5
44
102
{ACAD_REACTORS
330
3B
102
}
330
3B
100
AcDbProxyObject
 90
      499
 91
      505
 95
   393239
 70
     0
 93
      113
310
904313A333040000000000003E4000
  0
ACAD_PROXY_OBJECT
  5
45
102
{ACAD_REACTORS
330
3B
102
}
330
3B
100
AcDbProxyObject
 90
      499
 91
      505
 95
   393239
 70
     0
 93
      113
310
904313A34304000000000000444000
  0
ACAD_PROXY_OBJECT
  5
46
102
{ACAD_REACTORS
330
3B
102
}
330
3B
100
AcDbProxyObject
 90
      499
 91
      505
 95
   393239
 70
     0
 93
      113
310
904313A35304000000000000494000
  0
ACAD_PROXY_OBJECT
  5
47
102
{ACAD_REACTORS
330
3B
102
}
330
3B
100
AcDbProxyObject
 90
      499
 91
      505
 95
   393239
 70
     0
 93
      121
310
905313A3130304000000000000594000
  0
ACAD_PROXY_OBJECT
  5
48
102
{ACAD_REACTORS
330
3B
102
}
330
3B
100
AcDbProxyObject
 90
      499
 91
      505
 95
   393239
 70
     0
 93
      105
310
903323A310000000000000010100
  0
ACAD_PROXY_OBJECT
  5
49
102
{ACAD_REACTORS
330
3B
102
}
330
3B
100
AcDbProxyObject
 90
      499
 91
      505
 95
   393239
 70
     0
 93
      105
310
903343A310000000000000410100
  0
ACAD_PROXY_OBJECT
  5
4A
102
{ACAD_REACTORS
330
3B
102
}
330
3B
100
AcDbProxyObject
 90
      499
 91
      505
 95
   393239
 70
     0
 93
      105
310
903383A310000000000000810100
  0
ACAD_PROXY_OBJECT
  5
4B
102
{ACAD_REACTORS
330
3B
102
}
330
3B
100
AcDbProxyObject
 90
      499
 91
      505
 95
   393239
 70
     0
 93
      113
310
90431303A310000000000000910100
  0
ACAD_PROXY_OBJECT
  5
4C
102
{ACAD_REACTORS
330
3B
102
}
330
3B
100
AcDbProxyObject
 90
      499
 91
      505
 95
   393239
 70
     0
 93
      121
310
9053130303A310000000000001650100
  0
ACAD_PROXY_OBJECT
  5
4D
102
{ACAD_REACTORS
330
3B
102
}
330
3B
100
AcDbProxyObject
 90
      499
 91
      505
 95
   393239
 70
     0
 93
      257
310
90E312F31323822203D2031272D3022000000000000200FC000000000000284000
  0
ACAD_PROXY_OBJECT
  5
4E
102
{ACAD_REACTORS
330
3B
102
}
330
3B
100
AcDbProxyObject
 90
      499
 91
      505
 95
   393239
 70
     0
 93
      249
310
90D312F363422203D2031272D3022000000000000240FC000000000000284000
  0
ACAD_PROXY_OBJECT
  5
4F
102
{ACAD_REACTORS
330
3B
102
}
330
3B
100
AcDbProxyObject
 90
      499
 91
      505
 95
   393239
 70
     0
 93
      249
310
90D312F333222203D2031272D3022000000000000280FC000000000000284000
  0
ACAD_PROXY_OBJECT
  5
50
102
{ACAD_REACTORS
330
3B
102
}
330
3B
100
AcDbProxyObject
 90
      499
 91
      505
 95
   393239
 70
     0
 93
      249
310
90D312F313622203D2031272D30220000000000002C0FC000000000000284000
  0
ACAD_PROXY_OBJECT
  5
51
102
{ACAD_REACTORS
330
3B
102
}
330
3B
100
AcDbProxyObject
 90
      499
 91
      505
 95
   393239
 70
     0
 93
      249
310
90D332F333222203D2031272D30220000000000002E0FC000000000000284000
  0
ACAD_PROXY_OBJECT
  5
52
102
{ACAD_REACTORS
330
3B
102
}
330
3B
100
AcDbProxyObject
 90
      499
 91
      505
 95
   393239
 70
     0
 93
      241
310
90C312F3822203D2031272D3022000000000000300FC000000000000284000
  0
ACAD_PROXY_OBJECT
  5
53
102
{ACAD_REACTORS
330
3B
102
}
330
3B
100
AcDbProxyObject
 90
      499
 91
      505
 95
   393239
 70
     0
 93
      249
310
90D332F313622203D2031272D3022000000000000320FC000000000000284000
  0
ACAD_PROXY_OBJECT
  5
54
102
{ACAD_REACTORS
330
3B
102
}
330
3B
100
AcDbProxyObject
 90
      499
 91
      505
 95
   393239
 70
     0
 93
      241
310
90C312F3422203D2031272D3022000000000000340FC000000000000284000
  0
ACAD_PROXY_OBJECT
  5
55
102
{ACAD_REACTORS
330
3B
102
}
330
3B
100
AcDbProxyObject
 90
      499
 91
      505
 95
   393239
 70
     0
 93
      241
310
90C332F3822203D2031272D3022000000000000360FC000000000000284000
  0
ACAD_PROXY_OBJECT
  5
56
102
{ACAD_REACTORS
330
3B
102
}
330
3B
100
AcDbProxyObject
 90
      499
 91
      505
 95
   393239
 70
     0
 93
      241
310
90C312F3222203D2031272D3022000000000000380FC000000000000284000
  0
ACAD_PROXY_OBJECT
  5
57
102
{ACAD_REACTORS
330
3B
102
}
330
3B
100
AcDbProxyObject
 90
      499
 91
      505
 95
   393239
 70
     0
 93
      241
310
90C332F3422203D2031272D30220000000000003A0FC000000000000284000
  0
ACAD_PROXY_OBJECT
  5
58
102
{ACAD_REACTORS
330
3B
102
}
330
3B
100
AcDbProxyObject
 90
      499
 91
      505
 95
   393239
 70
     0
 93
      161
310
90A3122203D2031272D30224000000000000284000
  0
ACAD_PROXY_OBJECT
  5
566
102
{ACAD_REACTORS
330
3B
102
}
330
3B
100
AcDbProxyObject
 90
      499
 91
      505
 95
   393239
 70
     0
 93
      257
310
90E312D312F3222203D2031272D30220000000000003E0FC000000000000284000
  0
ACAD_PROXY_OBJECT
  5
567
102
{ACAD_REACTORS
330
3B
102
}
330
3B
100
AcDbProxyObject
 90
      499
 91
      505
 95
   393239
 70
     0
 93
      225
310
90A3322203D2031272D302200000000000002100000000000000284000
  0
ACAD_PROXY_OBJECT
  5
5B
102
{ACAD_REACTORS
330
3B
102
}
330
3B
100
AcDbProxyObject
 90
      499
 91
      505
 95
   393239
 70
     0
 93
      225
310
90A3622203D2031272D302200000000000006100000000000000284000
  0
ACAD_PROXY_OBJECT
  5
5C
102
{ACAD_REACTORS
330
3B
102
}
330
3B
100
AcDbProxyObject
 90
      499
 91
      505
 95
   393239
 70
     0
 93
      249
310
90D31272D3022203D2031272D30220000000000000A100000000000000284000
  0
ACAD_PROXY_OBJECT
  5
2F
102
{ACAD_REACTORS
330
2A
102
}
330
2A
100
AcDbProxyObject
 90
      499
 91
      506
 95
   393239
 70
     0
 93
      436
310
42CC9915DA5C99599C985B595049028333333333333E3BF0000000000000FB0107901411070040501600405405064090741402480A0340
1001
ACAD
1000
AcDbSavedByObjectVersion
1070
     0
  0
ACAD_PROXY_OBJECT
  5
31
102
{ACAD_REACTORS
330
2A
102
}
330
2A
100
AcDbProxyObject
 90
      499
 91
      506
 95
   393239
 70
     0
 93
      500
310
424CD108121A5919195B90640502408333333333333E3BF0000000000000FB01079024090700405020000000000001110200405405064090740C02480A0340
1001
ACAD
1000
AcDbSavedByObjectVersion
1070
     0
  0
ACAD_PROXY_OBJECT
  5
30
102
{ACAD_REACTORS
330
2A
102
}
330
2A
100
AcDbProxyObject
 90
      499
 91
      506
 95
   393239
 70
     0
 93
      436
310
42CCD915DA5C99599C985B595059028333333333333E3BF0000000000000FB0107901411070040501600405405064090741402480A0340
1001
ACAD
1000
AcDbSavedByObjectVersion
1070
     0
  0
ACAD_PROXY_OBJECT
  5
32
102
{ACAD_REACTORS
330
2A
102
}
330
2A
100
AcDbProxyObject
 90
      499
 91
      506
 95
   393239
 70
     0
 93
      388
310
4150985CDA58D07406404333333333333E3BF0000000000000FB0107A41107004050150841D405064090741402480A0350
1001
ACAD
1000
AcDbSavedByObjectVersion
1070
     0
  0
ACAD_PROXY_OBJECT
  5
36
102
{ACAD_REACTORS
330
2A
102
}
330
2A
100
AcDbProxyObject
 90
      499
 91
      506
 95
   393239
 70
     0
 93
      428
310
42109C9A59DA1D195B90C409028333333333333E3BF0000000000000FB010790141107004050150841D405064090741402480A029950
1001
ACAD
1000
AcDbSavedByObjectVersion
1070
     0
  0
ACAD_PROXY_OBJECT
  5
3A
102
{ACAD_REACTORS
330
2A
102
}
330
2A
100
AcDbProxyObject
 90
      499
 91
      506
 95
   393239
 70
     0
 93
      452
310
42D0DBDB1BDC90DA185B99D95104090240C333333333333E3BF0000000000000FB0108901411070040501508421405064090741402480A0350
1001
ACAD
1000
AcDbSavedByObjectVersion
1070
     0
  0
ACAD_PROXY_OBJECT
  5
34
102
{ACAD_REACTORS
330
2A
102
}
330
2A
100
AcDbProxyObject
 90
      499
 91
      506
 95
   393239
 70
     0
 93
      500
310
4290DBDB98D95C1D1D585B10940D028333333333333E3BF0000000000000FB0107902409070040501000000000000111010841D405064090740C02480A0340
1001
ACAD
1000
AcDbSavedByObjectVersion
1070
     0
  0
ACAD_PROXY_OBJECT
  5
35
102
{ACAD_REACTORS
330
2A
102
}
330
2A
100
AcDbProxyObject
 90
      499
 91
      506
 95
   393239
 70
     0
 93
      412
310
40D11A5B50B409028333333333333E3BF0000000000000FB010790141107004050150841D405064090741402480A02677FFFFFD0
1001
ACAD
1000
AcDbSavedByObjectVersion
1070
     0
  0
ACAD_PROXY_OBJECT
  5
39
102
{ACAD_REACTORS
330
2A
102
}
330
2A
100
AcDbProxyObject
 90
      499
 91
      506
 95
   393239
 70
     0
 93
      444
310
42D19858D95C185D1D195C9B90F409028333333333333E3BF0000000000000FB010790141107004050150841D405064090741402480A0350
1001
ACAD
1000
AcDbSavedByObjectVersion
1070
     0
  0
ACAD_PROXY_OBJECT
  5
2B
102
{ACAD_REACTORS
330
2A
102
}
330
2A
100
AcDbProxyObject
 90
      499
 91
      506
 95
   393239
 70
     0
 93
      388
310
41119B185D240901404333333333333E3BF0000000000000F9010740A41107004050150841D405064090741402480A1B50
1001
ACAD
1000
AcDbSavedByObjectVersion
1070
     0
  0
ACAD_PROXY_OBJECT
  5
2C
102
{ACAD_REACTORS
330
2A
102
}
330
2A
100
AcDbProxyObject
 90
      499
 91
      506
 95
   393239
 70
     0
 93
      476
310
43519B185D15DA5D1A115919D95CD0140901404333333333333E3BF0000000000000F9010740901411070040501600405405064090741402480A1B50
1001
ACAD
1000
AcDbSavedByObjectVersion
1070
     0
  0
ACAD_PROXY_OBJECT
  5
2D
102
{ACAD_REACTORS
330
2A
102
}
330
2A
100
AcDbProxyObject
 90
      499
 91
      506
 95
   393239
 70
     0
 93
      412
310
41D1DBDD5C985D5910240902404333333333333E3BF0000000000000F9010740A411070040501641D405064090741402480A1B50
1001
ACAD
1000
AcDbSavedByObjectVersion
1070
     0
  0
ACAD_PROXY_OBJECT
  5
2E
102
{ACAD_REACTORS
330
2A
102
}
330
2A
100
AcDbProxyObject
 90
      499
 91
      506
 95
   393239
 70
     0
 93
      500
310
4411DBDD5C985D5915DA5D1A115919D95CD0340902404333333333333E3BF0000000000000F9010740901411070040501600405405064090741402480A1B50
1001
ACAD
1000
AcDbSavedByObjectVersion
1070
     0
  0
ACAD_PROXY_OBJECT
  5
38
102
{ACAD_REACTORS
330
2A
102
}
330
2A
100
AcDbProxyObject
 90
      499
 91
      506
 95
   393239
 70
     0
 93
      444
310
42D31A5B995C185D1D195C9B90E409028333333333333E3BF0000000000000FB010790141107004050750841D405064090741402483A0350
1001
ACAD
1000
AcDbSavedByObjectVersion
1070
     0
  0
ACAD_PROXY_OBJECT
  5
33
102
{ACAD_REACTORS
330
2A
102
}
330
2A
100
AcDbProxyObject
 90
      499
 91
      506
 95
   393239
 70
     0
 93
      420
310
425499585B1A5CDD1A58D08409028333333333333E3BF0000000000000FB01079019070040501508421405064090741402480A1B40
1001
ACAD
1000
AcDbSavedByObjectVersion
1070
     0
  0
ACAD_PROXY_OBJECT
  5
37
102
{ACAD_REACTORS
330
2A
102
}
330
2A
100
AcDbProxyObject
 90
      499
 91
      506
 95
   393239
 70
     0
 93
      412
310
41D51A1A58DAD95B90D409028333333333333E3BF0000000000000FB010790141107004050150C41D405064090741402480A0350
1001
ACAD
1000
AcDbSavedByObjectVersion
1070
     0
  0
DICTIONARYVAR
  5
26F
102
{ACAD_REACTORS
330
59
102
}
330
59
100
DictionaryVariables
280
     0
  1
1:1
  0
DICTIONARYVAR
  5
56A
102
{ACAD_REACTORS
330
59
102
}
330
59
100
DictionaryVariables
280
     0
  1
2
  0
DICTIONARYVAR
  5
272
102
{ACAD_REACTORS
330
59
102
}
330
59
100
DictionaryVariables
280
     0
  1
5.000000
  0
ENDSEC
  0
EOF
